Same Sky – SiM (Bass tab)

Difficulty (1-5): 4
# Strings: 4
Tuning: CGCF (Drop C)
Reference: http://www.youtube.com/watch?v=9nJEXCZosgg

0:01
F|------------------------------------------------|
C|--------------7\---7\---------------11\----14\--|
G|--2----2----/9---/9----5----5----/12----/12-----|
C|------------------------------------------------|

F|-----------------------------------|
C|--------------7\---7\--------------|
G|--2----2----/9---/9----5----0-0~ --|
C|-----------------------------------|

F|------------------------|
C|------------------------|
G|--22----22--------------|
C|--------------00----00--|

F|----------------------------------------------------|
C|----4--2-------4--2---------------------------------|
G|--22-5--2----22-5--2--------------------------------|
C|------------------------0020-454----0020-454--0232--|

F|-----------------------------------|
C|----4--2-------02-444--2-----------|
G|--22-5--2---254------55-2---25420--|
C|-----------------------------------|

F|-----------------6-----9-6-------------|
C|----------------4-----7---7--------2---|
G|---------------4----79-----9-x3---5-2--|
C|--0020-454---46----9-------------------|

F|-----------------------------------------------------------|
C|-----02-444--2---------------------------------------------|
G|--254------55-2---25420------------------------------------|
C|--------------------------0020-454--0232--0020-454--02302--|

F|--------------------------------------|
C|---------7h9-9/11-11-7/5--4\----------|
G|--/7--5h7-------------------4\--------|
C|------------------------------4\-444--|

1:16
F|-----------------2----------------------|
C|----------2h4-2p0-----------------------|
G|-------55-----------2-202-02h4-5p4-2p0--|
C|--5-55----------------------------------|

F|-----------------2--/4-44p2----/7p6----|
C|----------2h4-2p0----------4-------74--|
G|-------55-------------------2-2--------|
C|--5-55---------------------------------|

F|----------------------------------------|
C|----------2h4-2p02----------------------|
G|-------55-----------2-202-02h4-5p4-2p0--|
C|--5-55----------------------------------|

F|--------------------------2h4-4/6-6\--|
C|----------2h4-2p02-0---2h4------------|
G|-------55-----------------------------|
C|--5-55--------------------------------|

F|-------------------------------2-----|
C|------------------------------4-420--|
G|--22-222-222-222-222-222-222---------|
C|-------------------------------------|

F|-------------------------------------|
C|-------------------------------------|
G|-------------------------------------|
C|--00-000-000-000-000-000-000-0002h3--|

1:51
F|------------------------/9-7h-------|
C|-----------------------------9-79\--|
G|--22----22--------------------------|
C|--------------00----00--------------|

F|------------------------------------|
C|-----4---4---4---4---4---4---4------|
G|--22--22--22--22--22--22--22--2202--|
C|------------------------------------|

F|-----------------------------------|
C|-----7---7---7---7---7---7---------|
G|--55--55--55--55--55--55--55--445--|
C|-----------------------------7-----|

F|--------7/119-----------------------|
C|-----7h9------11-9h11---4\----------|
G|--7-----------------------4\--------|
C|----------------------------4\-444--|

F|-----------------2----------------------|
C|----------2h4-2p0-----------------------|
G|-------55-----------2-202-02h4-5p4-2p0--|
C|--5-55----------------------------------|

F|-----------------2--/4-44p2----/7p6----|
C|----------2h4-2p0----------4-------74--|
G|-------55-------------------2-2--------|
C|--5-55---------------------------------|

F|----------------------------------------|
C|----------2h4-2p02----------------------|
G|-------55-----------2-202-02h4-5p4-2p0--|
C|--5-55----------------------------------|

F|-----------------------|
C|----------2h4-2p0-2h4--|
G|-------55--------------|
C|--5-55-----------------|

2:41
F|-------------------------------------|
C|-------------------------------------|
G|-------------------------------------|
C|--000-0000-00-0000-000-0000-00-0000--|

F|---------2/66-4\2-3-------------|
C|------2h4-----------3--------1--|
G|--2-------------------1--1-3----|
C|--------------------------------|

F|-------------------------------------|
C|-------------------------------------|
G|-------------------------------------|
C|--000-0000-00-0000-000-0000-00-0000--|

F|---------2/66-4\2-3-----10-9-7----|
C|------2h4-----------3/7--------7--|
G|--2-------------------------------|
C|----------------------------------|

F|-------------------------------------|
C|-------------------------------------|
G|-------------------------------------|
C|--000-0000-00-0000-000-0000-00-0-00--|

F|----------------------------------------------|
C|--------------5---5/88-7-5--------------------|
G|--7---024-024----5---------5\-----------------|
C|-------------------------------5-5-(x14)-0~ --|

3:22
F|-----------------2----------------------|
C|----------2h4-2p0-----------------------|
G|-------55-----------2-202-02h4-5p4-2p0--|
C|--5-55----------------------------------|

F|-----------------2--/4-44p2----/7p6----|
C|----------2h4-2p0----------4-------74--|
G|-------55-------------------2-2--------|
C|--5-55---------------------------------|

F|----------------------------------------|
C|----------2h4-2p02----------------------|
G|-------55-----------2-202-02h4-5p4-2p0--|
C|--5-55----------------------------------|

F|--------------------------------------|
C|---------2--x2/4-2-4--5-55------------|
G|------0h2-----------------5-----------|
C|--2-22---------------------75-x5-77\--|

F|-----------------------------------------------|
C|-----------------------------------------------|
G|--2-202-0-/542---1-101-0134---5-505-04h5-5/77--|
C|-----------------------------------------------|

F|---------------------------------------------|
C|---------------------5-x5/875--4--74---------|
G|--9-979-07/975------5------------5--5--x545--|
C|-----------------5-5-------------------------|

F|--------------------------------------|
C|----------2-x2/424---/5-55---5/8875---|
G|-------0h2----------------5--------5--|
C|--2-22---------------------7----------|

F|------------------------------------|
C|------------------------------------|
G|------------------------------------|
C|--5-555555-8888-10101010-------0~ --|
Advertisements

One thought on “Same Sky – SiM (Bass tab)

  1. I love how u play this song so far the best I have seen good thing u did not left the bass saying hi all the way from mexico

Leave a Reply

Fill in your details below or click an icon to log in:

WordPress.com Logo

You are commenting using your WordPress.com account. Log Out / Change )

Twitter picture

You are commenting using your Twitter account. Log Out / Change )

Facebook photo

You are commenting using your Facebook account. Log Out / Change )

Google+ photo

You are commenting using your Google+ account. Log Out / Change )

Connecting to %s