Kanzen Kankaku Dreamer – One Ok Rock (Bass tab)

Difficulty (1-5): 4
# Strings: 4
Tuning: EADG (Standard)
Reference: http://www.youtube.com/watch?v=ymrAmNiUctk

0:07
G|-----------------------------------------------|
D|--------79----------------------------9-9/11\--|
A|-----------07h9-05h70--------------6/9---------|
E|--55555-----------------77777-2-4/7------------|

G|-----------------------------------------------------|
D|--------------------------------11/14-13-11-9-9-11\--|
A|-------4/9-8h9p8------------7/11---------------------|
E|--44444---------9-9977--999--------------------------|

G|-----------------------------------------------|
D|--------79----------------------------9-9/11\--|
A|-----------07h9-05h70--------------6/9---------|
E|--55555-----------------77777-2-4/7------------|

G|-------------/99-1111-99\------------------|
D|---------------------------------643-446\--|
A|-------4/11\---------------44444-----------|
E|--44444------------------------------------|

0:33
G|-------------------------------------------------------------------|
D|-------------------------------------------------------------------|
A|-------------------------------------------------------------------|
E|--5555-5555-55555-7777-7777-77777-4444-4444-44444-9999-9999-99999--|

G|-------------------------------------------------------------------|
D|-------------------------------------------------------------------|
A|-------------------------------------------------------------------|
E|--5555-5555-55555-7777-7777-77777-4444-4444-44444-9999-9999-99999--|

G|-----------------------------------------|
D|----/9-7----------11-1111-11/1311-13-14--|
A|--------7/11-9-11------------------------|
E|--5--------------------------------------|

G|-----------------------------------|
D|-----------------------------------|
A|--/14\-----------------------------|
E|------/14\-7-78-9-9-99-9/12-11-97--|

G|-----------------------------------------|
D|----/9-7----------11-1111-11/1311-13-14--|
A|--------7/11-9-11------------------------|
E|--5--------------------------------------|

G|------------------------------------|
D|------------------------------------|
A|------------------------------------|
E|--2-2-222-4-4-444-5-5555555555\-77--|

1:13
G|----------------------------------|
D|----------------------------------|
A|----------------------------------|
E|--5-(x8)-7-(x8)-4-(x8)-9997-9999--|

G|-------------------------------|
D|-------------------------------|
A|-------------------4/11-(x12)--|
E|--5-(x8)-7-(x8)-444------------|

G|----------------------------------|
D|----------------------------------|
A|----------------------------------|
E|--5-(x8)-7-(x8)-4-(x8)-9997-9999--|

G|--------------------------|
D|--------------------------|
A|----------------5-(x15)\--|
E|--5-(x8)-7-(x8)-----------|

G|-----------------------------------------------|
D|--------79----------------------------9-9/11\--|
A|-----------07h9-05h70--------------6/9---------|
E|--55555-----------------77777-2-4/7------------|

G|-----------------------------------------------------|
D|--------------------------------11/14-13-11-9-9-11\--|
A|-------4/9-8h9p8------------7/11---------------------|
E|--44444---------9-9977--999--------------------------|

G|-----------------------------------------------|
D|--------79----------------------------9-9/11\--|
A|-----------07h9-05h70--------------6/9---------|
E|--55555-----------------77777-2-4/7------------|

G|-------------/99-1111-99\--------------|
D|---------------------------------643\--|
A|-------4/11\---------------44444-------|
E|--44444--------------------------------|

1:55
G|----------------------------------------------------------------------|
D|---------------------4h6-4h6------------4h6-4h6-----------------------|
A|-----------------------------------------------------------9h11-9h11--|
E|--/15\/\--7777-7777-7--------4444-4444-4--------9999-9999-9-----------|

G|--------------------------------------------------------------|
D|----------------------------------4h6-4h6------------4h6-4h6--|
A|--------------------------------------------------------------|
E|--5555-5555-5-/17\/\/\-7777-7777-7--------4444-4444-4---------|

G|---------------------|
D|---------------------|
A|----------9/11-98----|
E|--9999-999-------9\--|

G|-----------------------------------------|
D|----/9-7----------11-1111-11/1311-13-14--|
A|--------7/11-9-11------------------------|
E|--5--------------------------------------|

G|-----------------------------------|
D|-----------------------------------|
A|--/14\-----------------------------|
E|------/14\-7-78-9-9-99-9/12-11-97--|

G|-----------------------------------------|
D|----/9-7----------11-1111-11/1311-13-14--|
A|--------7/11-9-11------------------------|
E|--5--------------------------------------|

G|-------------------------------------|
D|-------------------------------------|
A|-------------------------------------|
E|--2-2-222-4-4-444-5-5555555555\-77\--|

G|----------------------------------|
D|----------------------------------|
A|----------------------------------|
E|--5-(x8)-7-(x8)-4-(x8)-9997-9999--|

G|-------------------------------|
D|-------------------------------|
A|-------------------4/11-(x12)--|
E|--5-(x8)-7-(x8)-444------------|

G|----------------------------------|
D|----------------------------------|
A|----------------------------------|
E|--5-(x8)-7-(x8)-4-(x8)-9997-9999--|

G|--------------------------|
D|--------------------------|
A|----------------5-(x15)\--|
E|--5-(x8)-7-(x8)-----------|

2:56
G|----------------------------------------------------------------------|
D|----------------------------------------------------------------------|
A|----------------------------------------------------------------------|
E|--7-99-79\--0--0--7-99-79\--22-5-5--7-99-79\--0--0--7-99-79\--22-5-5--|

G|---------------------------------------|
D|--9-11-9-------------------------------|
A|---------11-9-7-------7-9-11-14-11-14--|
E|----------------9-7-9------------------|

G|---------------------------------------|
D|--9-11-9-------------------------------|
A|---------11-9-7-------7-9-11-14-11-14--|
E|----------------9-7-9------------------|

G|---------------------------------------|
D|--9-11-9-------------------------------|
A|---------11-9-7-------7-9-11-14-11-14--|
E|----------------9-7-9------------------|

G|---------------------------------------|
D|--9-11-9-------------------------------|
A|---------11-9-7-------7-9-11-14-11-14--|
E|----------------9-7-9------------------|

G|-------------------------------------------------------------|
D|-------------------------------------------------------------|
A|-------------------------------------------------------------|
E|--555--777--444--555--555--777--10-(x12)-10-10-10--10-10-10--|

3:28
G|----------------------------------|
D|----------------------------------|
A|----------------------------------|
E|--5-(x8)-7-(x8)-4-(x8)-9997-9999--|

G|-------------------------------|
D|-------------------------------|
A|-------------------4/11-(x12)--|
E|--5-(x8)-7-(x8)-444------------|

G|----------------------------------|
D|----------------------------------|
A|----------------------------------|
E|--5-(x8)-7-(x8)-4-(x8)-9997-9999--|

G|------------------------------------|
D|------------------------------------|
A|------------------------------------|
E|--5-(x8)-7-(x8)-4-(x8)-44-00-22-44--|

G|----------------------------------|
D|----------------------------------|
A|----------------------------------|
E|--5-(x8)-7-(x8)-4-(x8)-9997-9999--|

G|-------------------------------|
D|-------------------------------|
A|-------------------4/11-(x12)--|
E|--5-(x8)-7-(x8)-444------------|

G|----------------------------------|
D|----------------------------------|
A|----------------------------------|
E|--5-(x8)-7-(x8)-4-(x8)-9997-9999--|

G|-----------------------------|
D|-----------------------------|
A|-----------------------------|
E|--5-(x8)-7-(x8)-9999\-9999\--|
Advertisements

Leave a Reply

Fill in your details below or click an icon to log in:

WordPress.com Logo

You are commenting using your WordPress.com account. Log Out / Change )

Twitter picture

You are commenting using your Twitter account. Log Out / Change )

Facebook photo

You are commenting using your Facebook account. Log Out / Change )

Google+ photo

You are commenting using your Google+ account. Log Out / Change )

Connecting to %s