Smiling Down – One Ok Rock (Bass tab)

Difficulty (1-5): 3
# Strings: 5
Tuning: BEADG (Standard)
Reference: http://www.youtube.com/watch?v=3arc7PpoVB0

0:11
G|---------------------------------------------------|
D|---------------------------------------------------|
A|--------------22-22-33-33--------------------------|
E|--------------------------------22-22-22-22-33-33--|
B|--55-55-33-33-------------55-55--------------------|

G|----------------------------------------------------|
D|----------------------------------------------------|
A|--------------22-22-33-33-44-44-55-55---------------|
E|----------------------------------------------------|
B|--55-55-33-33-------------------------55-55-5-(x6)--|

G|----9h11-12p9--------------------|
D|---------------------------------|
A|--7-----------5-5-3h5-3-3-3-3-3--|
E|---------------------------------|
B|---------------------------------|

G|--------------11h12-11----------------|
D|----------------------h12-------------|
A|--/7-5h7-5/25-------------3-3-3-3-33--|
E|--------------------------------------|
B|--------------------------------------|

G|-----7h9-7-------11-12-11----------11-12-11----------11-12-11-----|
D|----------h9-12-----------12----12----------12----12----------12--|
A|--/7-------------------------10----------------10-----------------|
E|------------------------------------------------------------------|
B|------------------------------------------------------------------|

G|------------------------------|
D|------------------------------|
A|--7-77-5h7-5-55-2h53~ --------|
E|------------------------------|
B|------------------------xxxx--|

1:02
G|---------------------------------------------------|
D|---------------------------------------------------|
A|--------------------------------------------22-22--|
E|--------------------33-33-------33-33-55-55--------|
B|--55-55-33-33-11-11-------11-11--------------------|

G|---------------------------------------------------|
D|---------------------------------------------------|
A|--------------------------------22-22-33-33-22-22--|
E|--------------------33-33-55-55--------------------|
B|--55-55-33-33-11-11--------------------------------|

G|---------------------------------------------------|
D|---------------------------------------------------|
A|--------------------------------------------2-2-2--|
E|--------------------3-3-3-------3-3-3-5-5-5--------|
B|--5-5-5-3-3-3-1-1-1-------1-1-1--------------------|

G|---------------------------------------------------|
D|---------------------------------------------------|
A|--------------------------------2-2-2-3-3-3-2-2-2--|
E|--------------------3-3-3-5-5-5--------------------|
B|--5-5-5-3-3-3-1-1-1--------------------------------|

G|---------------------------------------------------|
D|---------------------------------------------------|
A|--------------22-22-33-33--------------------------|
E|--------------------------------22-22-22-22-33-33--|
B|--55-55-33-33-------------55-55--------------------|

G|----------------------------------------------------|
D|----------------------------------------------------|
A|--------------22-22-33-33-44-44-55-55---------------|
E|----------------------------------------------------|
B|--55-55-33-33-------------------------55-55-5-(x6)--|

2:10
G|----9h11-12p9--------------------|
D|---------------------------------|
A|--7-----------5-5-3h5-3-3-3-3-3--|
E|---------------------------------|
B|---------------------------------|

G|--------------11h12-11----------------|
D|----------------------h12-------------|
A|--/7-5h7-5/25-------------3-3-3-3-33--|
E|--------------------------------------|
B|--------------------------------------|

G|-----7h9-7-------11-12-11----------11-12-11----------11-12-11-----|
D|----------h9-12-----------12----12----------12----12----------12--|
A|--/7-------------------------10----------------10-----------------|
E|------------------------------------------------------------------|
B|------------------------------------------------------------------|

G|------------------------------|
D|------------------------------|
A|--7-77-5h7-5-55-2h53~ --------|
E|------------------------------|
B|------------------------xxxx--|

G|---------------------------------------------------|
D|---------------------------------------------------|
A|--------------------------------------------22-22--|
E|--------------------33-33-------33-33-55-55--------|
B|--55-55-33-33-11-11-------11-11--------------------|

G|---------------------------------------------------|
D|---------------------------------------------------|
A|--------------------------------22-22-33-33-22-22--|
E|--------------------33-33-55-55--------------------|
B|--55-55-33-33-11-11--------------------------------|

G|---------------------------------------------------|
D|---------------------------------------------------|
A|--------------------------------------------2-2-2--|
E|--------------------3-3-3-------3-3-3-5-5-5--------|
B|--5-5-5-3-3-3-1-1-1-------1-1-1--------------------|

G|---------------------------------------------------|
D|---------------------------------------------------|
A|--------------------------------2-2-2-3-3-3-2-2-2--|
E|--------------------3-3-3-5-5-5--------------------|
B|--5-5-5-3-3-3-1-1-1--------------------------------|

3:01
G|---------------------------------------|
D|---------------------------------------|
A|--------------------3-(x8)-3-----------|
E|-----------------------------5-(x8)-5--|
B|--5-(x8)-5-5-(x8)-5--------------------|

G|---------------------------------------|
D|---------------------------------------|
A|--------------------3-(x8)-3-----------|
E|-----------------------------5-(x8)-5--|
B|--5-(x8)-5-5-(x8)-5--------------------|

G|---------------------------------------|
D|---------------------------------------|
A|--------------------3-(x8)-3-----------|
E|-----------------------------5-(x8)-5--|
B|--5-(x8)-5-5-(x8)-5--------------------|

G|---------------------------------------|
D|---------------------------------------|
A|---------------------------------------|
E|--------------------3-(x8)-3-2-(x8)-2--|
B|--5-(x8)-5-5-(x8)-5--------------------|

G|---------------------------------------------------|
D|---------------------------------------------------|
A|----------02---------02-0---------02---------02-0--|
E|-----------------------3-----------------------3---|
B|--55-5-55----55-5-55-------55-5-55---55-5-55-------|

G|-------------------------------------------|
D|-------------------------------------------|
A|-------------------------------------------|
E|-------------------------------------------|
B|--5--5--5--5--55-55--55-55--55-55--5-(x6)--|

3:44
G|---------------------------------------------------|
D|---------------------------------------------------|
A|--------------------------------------------22-22--|
E|--------------------33-33-------33-33-55-55--------|
B|--55-55-33-33-11-11-------11-11--------------------|

G|---------------------------------------------------|
D|---------------------------------------------------|
A|--------------------------------22-22-33-33-22-22--|
E|--------------------33-33-55-55--------------------|
B|--55-55-33-33-11-11--------------------------------|

G|---------------------------------------------------|
D|---------------------------------------------------|
A|--------------------------------------------2-2-2--|
E|--------------------3-3-3-------3-3-3-5-5-5--------|
B|--5-5-5-3-3-3-1-1-1-------1-1-1--------------------|

G|----------------------------------------------------|
D|----------------------------------------------------|
A|--------------------------------2-2-2-3-3-3-2-(x6)--|
E|--------------------3-3-3-5-5-5---------------------|
B|--5-5-5-3-3-3-1-1-1---------------------------------|
Advertisements

Leave a Reply

Fill in your details below or click an icon to log in:

WordPress.com Logo

You are commenting using your WordPress.com account. Log Out / Change )

Twitter picture

You are commenting using your Twitter account. Log Out / Change )

Facebook photo

You are commenting using your Facebook account. Log Out / Change )

Google+ photo

You are commenting using your Google+ account. Log Out / Change )

Connecting to %s