Nothing Helps – One Ok Rock (Bass tab)

Difficulty (1-5): 3
# Strings: 4
Tuning: Eb Ab Db Gb (Half Step Down)
Reference: http://www.youtube.com/watch?v=s__5Z66nDT8

0:12
Gb|--------------------------------------------------------|
Db|--------------------------------------------------------|
Ab|---------------3-3-5-5-5-------3-3-5-5-5-------3-3-5~ --|
Eb|--/20-20\--0-0-----------320-0-----------320-0----------|

Gb|--------------------------------------------------|
Db|--------------------------------------------------|
Ab|------------3-(x7)-5-(x15)--------3-(x7)-5-(x14)--|
Eb|--00-0-(x8)----------------0-(x8)-----------------|

Gb|-----------------------------------------------|
Db|-----------------------------------------------|
Ab|---------3-(x7)-5-(x15)--------3-(x7)-5-(x15)--|
Eb|--0-(x8)----------------0-(x8)-----------------|

Gb|----------------------------------------------------------|
Db|----------------------------------------------------------|
Ab|------3~ -5~ --------------3-(x15)-5-(x15)----------------|
Eb|--0~ ---------3-2--0-(x15)-----------------3-(x8)-2-(x7)--|

Gb|-------------------------------------|
Db|-------------------------------------|
Ab|--3-(x15)-5-(x14)-2-3-(x15)-5-(x9)\--|
Eb|-------------------------------------|

1:24
Gb|--------------------------------------|
Db|--------------------------------------|
Ab|------------33----2--------55-33-223--|
Eb|--0-00-0000---0033--3-(x8)------------|

Gb|--------------------------------------------------------|
Db|--------------------------------------------------------|
Ab|------------33----2--------/55555-32-/7777777-33333-23--|
Eb|--0-00-0000---0033--3-(x8)------------------------------|

Gb|-------------------------------------|
Db|-------------------------------------|
Ab|---------/55555-32--3-(x16)-5-(x15)--|
Eb|--3-(x8)-----------------------------|

Gb|------------------------------------|
Db|------------------------------------|
Ab|----------3-3-3-3---------5-5-5-55--|
Eb|--0-0-0-0---------3-3-3-3-----------|

Gb|-----------------------------------------|
Db|-----------------------------------------|
Ab|----------3-(x15)-5-(x15)----------------|
Eb|--0-(x15)-----------------3-(x8)-2-(x7)--|

Gb|-------------------------------------|
Db|-------------------------------------|
Ab|--3-(x15)-5-(x14)-2-3-(x15)-5-(x9)\--|
Eb|-------------------------------------|

2:17
Gb|--------------------------------------|
Db|--------------------------------------|
Ab|------------33----2--------55-33-223--|
Eb|--0-00-0000---0033--3-(x8)------------|

Gb|--------------------------------------------------------|
Db|--------------------------------------------------------|
Ab|------------33----2--------/55555-32-/7777777-33333-23--|
Eb|--0-00-0000---0033--3-(x8)------------------------------|

Gb|--------------------------------------|
Db|--------------------------------------|
Ab|---------/55555-32--3-(x16)-5-(x15)\--|
Eb|--3-(x8)------------------------------|

Gb|---------------------------------|
Db|---------------------------------|
Ab|--/7~ -/7~ -/7~ -/7~ -/777-5777--|
Eb|---------------------------------|

Gb|------------------------------------------------------------------------|
Db|------------------------------------------------------------------------|
Ab|---------3-(x7)-5-55-3555-5555-3555---------3-(x7)-5-55-3555-5555-3555--|
Eb|--0-(x7)-----------------------------0-(x7)-----------------------------|

Gb|------------------------------------------------------------------|
Db|------------------------------------------------------------------|
Ab|---------3-(x7)-5-55-3555-5555-3555---------3-(x7)-5-5555-3335~ --|
Eb|--0-(x7)-----------------------------0-(x7)-----------------------|

3:24
Gb|--------------------------------------|
Db|--------------------------------------|
Ab|----------3-3-3-3-5-5-5-5-------------|
Eb|--0-0-0-0------------------3-(x8)-22--|

Gb|-----------------------------------------|
Db|-----------------------------------------|
Ab|----------3-(x15)---------5-(x8)-6-(x7)--|
Eb|--0-(x15)---------3-(x15)----------------|

Gb|------------------------------------------|
Db|------------------------------------------|
Ab|----------3-(x15)---------5-(x8)-6-(x7)\--|
Eb|--0-(x15)---------3-(x15)-----------------|

Gb|--------------------------------------------------------|
Db|--------/54---------------------------------------------|
Ab|-----------5-23-3-3-33/5-23------------/55-555-6-(x7)\--|
Eb|--0-0-0---------------------3-3-3-3233------------------|

Gb|--------------------------------------------------------|
Db|--------/54---------------------------------------------|
Ab|-----------5-23-3-3-33/5-23------------/55-555-6-(x7)\--|
Eb|--0-0-0---------------------3-3-3-3233------------------|

Gb|-----------------------------------|
Db|-----------------------------------|
Ab|------555-----555-----555-----555--|
Eb|--000-----000-----000-----000------|

Gb|-----------------------------------------|
Db|-----------------------------------------|
Ab|------555-----555-----555----------------|
Eb|--000-----000-----000-----0~ --0-000000--|
Advertisements

Leave a Reply

Fill in your details below or click an icon to log in:

WordPress.com Logo

You are commenting using your WordPress.com account. Log Out / Change )

Twitter picture

You are commenting using your Twitter account. Log Out / Change )

Facebook photo

You are commenting using your Facebook account. Log Out / Change )

Google+ photo

You are commenting using your Google+ account. Log Out / Change )

Connecting to %s