Ending Story?? – One Ok Rock (Bass tab)

Difficulty (1-5): 3
# Strings: 4
Tuning: DADG (Drop D)
Reference: http://www.youtube.com/watch?v=2Ux2BIKscaw

0:18
G|--------------------------------|
D|--------------------------------|
A|---------44-4-----------44-4----|
D|--33-311-----66--33-311-----66--|

G|------------------------------------------------------------|
D|------------------------------------------------------------|
A|----------------4(x8)-----------------------4-(x8)----------|
D|--3-(x8)-1-(x8)-------6-(x8)--3-(x8)-1-(x8)---------6-(x7)--|

G|--------------------------------|
D|--------------------------------|
A|---------44-4-----------44-4----|
D|--33-311-----66--33-311-----66--|

G|-----------------------------------------------------------|
D|-----------------------------------------------------------|
A|----------------4(x8)-----------------------4-(x8)---------|
D|--3-(x8)-1-(x8)-------6-(x8)--3-(x8)-1-(x8)--------6-(x8)--|

G|------------------------------------------------------------|
D|------------------------------------------------------------|
A|----------------4(x8)-----------------------4-(x8)----------|
D|--3-(x8)-1-(x8)-------6-(x8)--3-(x8)-1-(x8)---------6-(x7)--|

G|-----------------------------------------------------------|
D|-----------------------------------------------------------|
A|----------------4(x8)-----------------------4-(x8)---------|
D|--3-(x8)-1-(x8)-------6-(x8)--3-(x8)-1-(x8)--------6-(x8)--|

G|--------------------------------------------------------------|
D|--------------------------------------------------------------|
A|----------------4(x8)--------------------464-6-4-(x8)---------|
D|--3-(x8)-1-(x8)-------6-(x8)--3-(x8)-11/6---6---------6-(x8)--|

G|--------------------------------|
D|--------------------------------|
A|------7\-444\--------7\-444\----|
D|--333/-------6\--333/-------6\--|

1:45
G|-----------------------------------------------------------|
D|-----------------------------------------------------------|
A|----------------4(x8)-----------------------4-(x8)---------|
D|--3-(x8)-1-(x8)-------6-(x8)--3-(x8)-1-(x8)--------6-(x8)--|

G|------------------------------------------------------------|
D|------------------------------------------------------------|
A|----------------4(x8)-----------------------4-(x8)----------|
D|--3-(x8)-1-(x8)-------6-(x8)--3-(x8)-1-(x8)---------6-(x7)--|

G|-----------------------------------------------------------|
D|-----------------------------------------------------------|
A|----------------4(x8)-----------------------4-(x8)---------|
D|--3-(x8)-1-(x8)-------6-(x8)--3-(x8)-1-(x8)--------6-(x8)--|

G|----------------------------------------|
D|----------------------------------------|
A|--44~ ----33~ 33-33~ 44~ ---------------|
D|------66~ ---------------66~ 11~ 11-11--|

G|-----------------------------------------------|
D|-----------------------------------------------|
A|--44~ ----33~ 33-33~ 44~ 44~ 3-(x8)-333-222----|
D|------66~ ---------------------------------66--|

3:02
G|---------------------------------------------|
D|---------------------------------------------|
A|---------------------------------------------|
D|--4-4-4-3303-303-303-8868-3303-303-303-6656--|

G|---------------------------------------|
D|---------------------------------------|
A|---------------------------------------|
D|--3303-303-303-8868-3303-303-303-6656--|

G|----------------------------------------|
D|----------------------------------------|
A|--4-(x8)-3-(x8)----------4-(x8)---------|
D|----------------3-(x16)---------1-(x6)--|

G|---------------------------------------------------------------|
D|---------------------------------------------------------------|
A|----------------4(x8)--------------------464-6-4-(x8)----------|
D|--3-(x8)-1-(x8)-------6-(x8)--3-(x8)-11/6---6----------6-(x7)--|

G|-----------------------------------------------------------|
D|-----------------------------------------------------------|
A|----------------4(x8)-----------------------4-(x8)---------|
D|--3-(x8)-1-(x8)-------6-(x8)--3-(x8)-1-(x8)--------6-(x8)--|

3:44
G|-----------------------------------------------|
D|-----------------------------------------------|
A|------333-66---------33-444-333-11-------------|
D|--333--------111-666---------------666-555-11--|

G|----------------------------------------------|
D|----------------------------666-----6666------|
A|------333-66---------33-444-----44-------666--|
D|--333--------111-666--------------------------|

G|------------------------------------------|
D|------------------------------------------|
A|-------------464-6-444-333-11-------------|
D|--3-(x8)-11/6---6-------------666-555-11--|

G|------------------------------------------|
D|--------------------------------6666------|
A|----------4-(x6)-3-(x6)-1-(x6)-------666--|
D|--3-(x16)---------------------------------|

G|-----------------------------------------|
D|-----------------------------------------|
A|-----------------------------------------|
D|--3303-303-303-8868-3303-303-303-4-4-4\--|
Advertisements

Leave a Reply

Fill in your details below or click an icon to log in:

WordPress.com Logo

You are commenting using your WordPress.com account. Log Out / Change )

Twitter picture

You are commenting using your Twitter account. Log Out / Change )

Facebook photo

You are commenting using your Facebook account. Log Out / Change )

Google+ photo

You are commenting using your Google+ account. Log Out / Change )

Connecting to %s