All Mine – One Ok Rock (Bass tab)

Difficulty (1-5): 2
# Strings: 4
Tuning: EADG (Standard)
Reference: http://www.youtube.com/watch?v=0xO6CAaJNBo

0:30
G|-----------------------------------|
D|-----------------------------------|
A|-----------------------------------|
E|--10~ 8~ 7~ 6~ 5/-10~ 8~ 7~ 6~ 5/--|

G|-----------------------------------------------|
D|-----------------------------------------------|
A|-----------------------------------------------|
E|--10~ 8h108\-/7\-/6~ 5/-10~ 8h108\-/7\-/6~ 5/--|

G|--------------------------------|
D|--------------------------------|
A|--------------------------------|
E|--7-(x8)-5-(x8)-3-(x12)-5-(x4)--|

G|-----------------------------------------------|
D|---------------------------------------7-(x4)--|
A|--------------------------------7-(x4)---------|
E|--7-(x8)-5-(x8)-3-(x16)-/5-(x8)----------------|

1:45
G|--7/97--7/97-----7/97--7/97-----7/97--7/97-----7/97--7/97-----|
D|------7-----757------7-----757------7-----757------7-----7-7--|
A|----------------------------------------------------------9---|
E|--------------------------------------------------------------|

G|--7/97--7/97-----7/97--7/97-----7/97--7/97-----7/97--7/97------7--|
D|------7-----757------7-----757------7-----757------7-----7---7----|
A|-----------------------------------------------------------9------|
E|------------------------------------------------------------------|

G|------------------------------------|
D|------------------------------------|
A|------------------------------------|
E|--10~ 8~ 7~ 6~ -5/-10~ 8~ 7~ 6~ 5/--|

G|--------------------------|
D|--------------------------|
A|--------------------------|
E|--/10~ 8h108\-/7\-/6~ 5/--|

G|--------------------------------|
D|--------------------------------|
A|--------------------------------|
E|--7-(x8)-5-(x8)-3-(x12)-5-(x4)--|

G|-----------------------------------------------|
D|---------------------------------------7-(x4)--|
A|--------------------------------7-(x4)---------|
E|--7-(x8)-5-(x8)-3-(x16)-/5-(x8)----------------|

3:31
G|--7/97--7/97-----7/97--7/97-----7/97--7/97-----7/97--7/97-----|
D|------7-----757------7-----757------7-----757------7-----7-7--|
A|----------------------------------------------------------9---|
E|--------------------------------------------------------------|

G|--7/97--7/97-----7/97--7/97-----7/97--7/97-----7/97--7/97-----|
D|------7-----757------7-----757------7-----757------7-----7-7--|
A|----------------------------------------------------------9---|
E|--------------------------------------------------------------|

G|--9/11-97--9/11-97-----9/11-97--9/11-97----|
D|------------------79-------------------79--|
A|-------------------------------------------|
E|-------------------------------------------|

G|--9/11-97--9/11-97-----9/11-97--9/11-9------|
D|------------------79------------------7911--|
A|--------------------------------------------|
E|--------------------------------------------|

G|--9/11-97--9/11-97-----9/11-97--9/11-97----|
D|------------------79-------------------79--|
A|-------------------------------------------|
E|-------------------------------------------|

G|--9/11-97--9/11-9-7--------9/11-9-7--9/11--9--7---------------------|
D|-------------------7-9---------------------------9---11------11/12--|
A|--------------------------------------------------------------------|
E|--------------------------------------------------------------------|
Advertisements

Leave a Reply

Fill in your details below or click an icon to log in:

WordPress.com Logo

You are commenting using your WordPress.com account. Log Out / Change )

Twitter picture

You are commenting using your Twitter account. Log Out / Change )

Facebook photo

You are commenting using your Facebook account. Log Out / Change )

Google+ photo

You are commenting using your Google+ account. Log Out / Change )

Connecting to %s