Rose – Lee Hi (Bass tab)

Difficulty (1-5): 3
# Strings: 4
Tuning: EADG (Standard)
Reference: http://www.youtube.com/watch?v=0KqcZXexjPw

0:32
    S SS SP S    S SS SS    S SS SP S    S SS SP
G|--------------------------------------------------|
D|--------7-5h7-------------------5-4h5--------0h2--|
A|--------------------------------------------------|
E|--5-x5-5-------2-x2-20h2--3-x3-3-------0-x0-0-----|

    S SS SP S    S SS SP S    S SS SP S    S S S
G|---------------------4-2h4----------------------|
D|--------4-2h4---------------------2-------------|
A|---------------2-x2-2---------------0h2---------|
E|--2-x2-2--------------------0-x0-0-------0-2-3--|

    S SS SP S    S SS SS    S SS SP S    S SS SP
G|--------------------------------------------------|
D|--------7-5h7-------------------5-4h5--------0h2--|
A|--------------------------------------------------|
E|--5-x5-5-------2-x2-20h2--3-x3-3-------0-x0-0-----|

    S SS SP S    S SS SP S    S SS SP S    S S S
G|---------------------4-2h4----------------------|
D|--------4-2h4---------------------2-------------|
A|---------------2-x2-2---------------0h2---------|
E|--2-x2-2--------------------0-x0-0-------0-2-3--|

    S SS SP S    S SS SS    S SS SP S    S SS SP
G|--------------------------------------------------|
D|--------7-5h7-------------------5-4h5--------0h2--|
A|--------------------------------------------------|
E|--5-x5-5-------2-x2-20h2--3-x3-3-------0-x0-0-----|

    S SS SP S    S SS SP S    S SS SP S    S S S
G|---------------------4-2h4----------------------|
D|--------4-2h4---------------------2-------------|
A|---------------2-x2-2---------------0h2---------|
E|--2-x2-2--------------------0-x0-0-------0-2-3--|

    S SS SP S    S SS SS    S SS SP S    S SS SP
G|--------------------------------------------------|
D|--------7-5h7-------------------5-4h5--------0h2--|
A|--------------------------------------------------|
E|--5-x5-5-------2-x2-20h2--3-x3-3-------0-x0-0-----|

    S SS SP S    S SS SP S    S
G|---------------------4-2h4-----|
D|--------4-2h4------------------|
A|---------------2-x2-2----------|
E|--2-x2-2--------------------0--|

1:13
_____________________________________________________________________________
                                                                             |
G|-------------------------------------------------------|                   |
D|-----------10-10/12-12/14------------------------------|                   |
A|--10-10h12----------------14--10h12-12/14-12-10-10/12--|                   |
E|-------------------------------------------------------|                   |
                                                                             |
G|------------------------------------------------17/19-17--------|          |
D|--------10/12-12/14-14/16--14-14/16-16/17-17/19----------17/19--|          |
A|--10h12---------------------------------------------------------|          |
E|----------------------------------------------------------------|          |
                                                                             |
G|--------17/19-17-----------------------|                                   |
D|--17h19----------19-17/19-17-19-19/21--|                                   |
A|---------------------------------------|                                   |
E|---------------------------------------|                                   |
                                                                             |
G|--------19/21-19-----------------------------17/19-17-----------------|    |
D|--19h21----------21-19/21-19-17-17/19--17h19----------17-17/19-19/21--|    |
A|----------------------------------------------------------------------|    |
E|----------------------------------------------------------------------|    |
                                                                             |
G|---------------11/12-11-11/14-12-11--------|                               |
D|---------10-12----------------------11/12--|                               |
A|--10--12-----------------------------------|                               |
E|-------------------------------------------|                               |
                                                                             |
G|--------------------------------------------------------------|            |
D|--10h12-12/14-12-10------------------------10-10/12-12/14-----|            |
A|--------------------/14-12-10-10/12--14p12----------------14--|            |
E|--------------------------------------------------------------|            |
                                                                             |
G|-----------------------------------------------------------------------|   |
D|--------/17-16-17-17/19-17-19-19/21--22p21-19-19h21-19-17-17/19-19/21--|   |
A|--12h14----------------------------------------------------------------|   |
E|-----------------------------------------------------------------------|   |
                                                                             |
G|--------19/21-19-------------------------------------------------------|   |
D|--19h21----------21-19/21-19-17-17/19--21p19-/22-21h22-21----19-19/21--|   |
A|----------------------------------------------------------22-----------|   |
E|-----------------------------------------------------------------------|   |
_____________________________________________________________________________|

2:35
    S SS SP S    S SS SS    S SS SP S    S SS SP
G|--------------------------------------------------|
D|--------7-5h7-------------------5-4h5--------0h2--|
A|--------------------------------------------------|
E|--5-x5-5-------2-x2-20h2--3-x3-3-------0-x0-0-----|

    S SS SP S    S SS SP S    S SS SP S    S S S
G|---------------------4-2h4----------------------|
D|--------4-2h4---------------------2-------------|
A|---------------2-x2-2---------------0h2---------|
E|--2-x2-2--------------------0-x0-0-------0-2-3--|

    S SS SP S    S SS SS    S SS SP S    S SS SP
G|--------------------------------------------------|
D|--------7-5h7-------------------5-4h5--------0h2--|
A|--------------------------------------------------|
E|--5-x5-5-------2-x2-20h2--3-x3-3-------0-x0-0-----|

    S SS SP S    S SS SP S    S
G|---------------------4-2h4-----|
D|--------4-2h4------------------|
A|---------------2-x2-2----------|
E|--2-x2-2--------------------0--|

3:04
    S S S  S SS SP S    S SS SS    S SS SP S    S SS SP
G|---------------------------------------------------------|
D|---------------7-5h7-------------------5-4h5--------0h2--|
A|---------------------------------------------------------|
E|--0-2-3--5-x5-5-------2-x2-20h2--3-x3-3-------0-x0-0-----|

    S SS SP S    S SS SP S    S SS SP S    S S S
G|---------------------4-2h4----------------------|
D|--------4-2h4---------------------2-------------|
A|---------------2-x2-2---------------0h2---------|
E|--2-x2-2--------------------0-x0-0-------0-2-3--|

    S SS SP S    S SS SS    S SS SP S    S SS SP
G|--------------------------------------------------|
D|--------7-5h7-------------------5-4h5--------0h2--|
A|--------------------------------------------------|
E|--5-x5-5-------2-x2-20h2--3-x3-3-------0-x0-0-----|

    S SS SP S    S SS SP S    S SS SP S    S S
G|---------------------4-2h4----------------------|
D|--------4-2h4---------------------2-------------|
A|---------------2-x2-2---------------0h2---------|
E|--2-x2-2--------------------0-x0-0-------0-19\--|
Advertisements

Leave a Reply

Fill in your details below or click an icon to log in:

WordPress.com Logo

You are commenting using your WordPress.com account. Log Out / Change )

Twitter picture

You are commenting using your Twitter account. Log Out / Change )

Facebook photo

You are commenting using your Facebook account. Log Out / Change )

Google+ photo

You are commenting using your Google+ account. Log Out / Change )

Connecting to %s