Bunny Style – T-ara (Bass tab)

Difficulty (1-5): 3
# Strings: 4
Tuning: EADG (Standard)
Reference: http://www.youtube.com/watch?v=yRqigBg5xik

0:07
G|-----------------------------------------------------|
D|-----------------------------------------------------|
A|----7----87------7----87------7----87------7----87---|
E|--5--8--5--8---5--8--5--8---5--8--5--8---5--8--5--8--|

G|-----------------------------------------------------|
D|-----------------------------------------------------|
A|----7----87------7----87------7----87------7---6543--|
E|--5--8--5--8---5--8--5--8---5--8--5--8---5--8--------|

G|-----------------------------------------------------|
D|-----------------------------------------------------|
A|----7----87------7----87------7----87------7---6543--|
E|--5--8--5--8---5--8--5--8---5--8--5--8---5--8--------|

G|-----------------------------------------------------|
D|-----------------------------------------------------|
A|----7----87------7----87------7----87------7----87---|
E|--5--8--5--8---5--8--5--8---5--8--5--8---5--8--5--8--|

G|-----------------------------------------------------|
D|-----------------------------------------------------|
A|----7----87------7----87------7----87------7---6543--|
E|--5--8--5--8---5--8--5--8---5--8--5--8---5--8--------|

0:45
G|------------------8----------------------8-------|
D|---7--10-------7----7-----7--10-------7----7-----|
A|-----------------6----------------------6--------|
E|--5--8--5--3-5-----5--3--5--8--5--3-5-----5--33--|

G|---------------9--9--9--9--11-11-11-11--7--7--7--7--|
D|---7--7--7--7---------------------------------------|
A|--------------7--7--7--7--9--9--9--9---5--5--5--5---|
E|--5--5--5--5----------------------------------------|

G|---------------9--9--9--9--11-11-11-11--7--7--7--7--|
D|---7--7--7--7---------------------------------------|
A|--------------7--7--7--7--9--9--9--9---5--5--5--5---|
E|--5--5--5--5----------------------------------------|

G|---------------9--9--9--9--11-11-11-11--7--7--7--7--|
D|---7--7--7--7---------------------------------------|
A|--------------7--7--7--7--9--9--9--9---5--5--5--5---|
E|--5--5--5--5----------------------------------------|

G|---------------9--9--9--9--11-11-11-11--7--7--7--7--|
D|---7--7--7--7---------------------------------------|
A|--------------7--7--7--7--9--9--9--9---5--5--5--5---|
E|--5--5--5--5----------------------------------------|

G|--------------------------|
D|--------------------------|
A|--77-7-77-7-7-77-7-77-7\--|
E|--------------------------|

1:29
G|-----------------------------------------------------|
D|-----------------------------------------------------|
A|----7----87------7----87------7----87------7---6543--|
E|--5--8--5--8---5--8--5--8---5--8--5--8---5--8--------|

--PAUSE--

G|-----------------------------------------------------|
D|-----------------------------------------------------|
A|----7----87------7----87------7----87------7---6543--|
E|--5--8--5--8---5--8--5--8---5--8--5--8---5--8--------|

G|------------------8----------------------8-------|
D|---7--10-------7----7-----7--10-------7----7-----|
A|-----------------6----------------------6--------|
E|--5--8--5--3-5-----5--3--5--8--5--3-5-----5--33--|

G|---------------9--9--9--9--11-11-11-11--7--7--7--7--|
D|---7--7--7--7---------------------------------------|
A|--------------7--7--7--7--9--9--9--9---5--5--5--5---|
E|--5--5--5--5----------------------------------------|

G|---------------9--9--9--9--11-11-11-11--7--7--7--7--|
D|---7--7--7--7---------------------------------------|
A|--------------7--7--7--7--9--9--9--9---5--5--5--5---|
E|--5--5--5--5----------------------------------------|

G|--------------------------|
D|--------------------------|
A|--77-7-77-7-7-77-7-77-7\--|
E|--------------------------|

2:21
G|-----------------------------------------------------|
D|-----------------------------------------------------|
A|----7----87------7----87------7----87------7---6543--|
E|--5--8--5--8---5--8--5--8---5--8--5--8---5--8--------|

G|-----------------------------------------------------|
D|-----------------------------------------------------|
A|----7----87------7----87------7----87------7---6543--|
E|--5--8--5--8---5--8--5--8---5--8--5--8---5--8--------|

G|---------------------------|
D|---------------------------|
A|----7----87------7---------|
E|--5--8--5--8---5--8--7654--|

G|---------------------------|
D|---------------------------|
A|----7----87------7---------|
E|--5--8--5--8---5--8--7654--|

G|---------------------------|
D|---------------------------|
A|----7----87------7---------|
E|--5--8--5--8---5--8--7654--|

_________________________________________________________________
                                                                 |
G|------------------------------------------------|              |
D|------------------------10-10/12----------------|              |
A|--/88-8h10-10/12--10h12----------12--12\10-10\--|              |
E|------------------------------------------------|              |
                                                                 |
G|----------------------------10/12-10-9----------9-----|        |
D|-----------------------10h12-----------10-10/12---10--|        |
A|--/88-8h10-10/12--10h12-------------------------------|        |
E|------------------------------------------------------|        |
                                                                 |
    T       T       T       T       T       T       T            |
G|-----------------------------------------------------------|   |
D|--12p8h10-12p8h10-14p8h10-14p8h10-15p8h10-15p8h10-17~ --/--|   |
A|-----------------------------------------------------------|   |
E|-----------------------------------------------------------|   |
_________________________________________________________________|

3:08
G|---------------9--9--9--9--11-11-11-11--7--7--7--7--|
D|---7--7--7--7---------------------------------------|
A|--------------7--7--7--7--9--9--9--9---5--5--5--5---|
E|--5--5--5--5----------------------------------------|

G|---------------9--9--9--9--11-11-11-11--7--7--7--7--|
D|---7--7--7--7---------------------------------------|
A|--------------7--7--7--7--9--9--9--9---5--5--5--5---|
E|--5--5--5--5----------------------------------------|

G|---------------9--9--9--9--11-11-11-11--7--7--7--7--|
D|---7--7--7--7---------------------------------------|
A|--------------7--7--7--7--9--9--9--9---5--5--5--5---|
E|--5--5--5--5----------------------------------------|

G|---------------9--9--9--9--11-11-11-11--7--7--7--7--|
D|---7--7--7--7---------------------------------------|
A|--------------7--7--7--7--9--9--9--9---5--5--5--5---|
E|--5--5--5--5----------------------------------------|

G|--------------------------|
D|--------------------------|
A|--77-7-77-7-7-77-7-77-7\--|
E|--------------------------|

G|---------------------------------------|
D|--1010-10-1010-10-10-1010-10-1212-12\--|
A|---------------------------------------|
E|---------------------------------------|

G|---------------------------|
D|---------------------------|
A|----7----87------7---6543--|
E|--5--8--5--8---5--8--------|
Advertisements

Leave a Reply

Fill in your details below or click an icon to log in:

WordPress.com Logo

You are commenting using your WordPress.com account. Log Out / Change )

Twitter picture

You are commenting using your Twitter account. Log Out / Change )

Facebook photo

You are commenting using your Facebook account. Log Out / Change )

Google+ photo

You are commenting using your Google+ account. Log Out / Change )

Connecting to %s