Amy – SiM (Bass tab)

Difficulty (1-5): 4
# Strings: 4
Tuning: CGCF (Drop C)
Reference: http://www.youtube.com/watch?v=Wvh3YaHwvJg

0:10
F|------------------------------------|
C|------------------------------------|
G|-----1-------1---------1-------1----|
C|--222-20--222-20----222-20--222-20--|

F|------------------------------------|
C|------------------------------------|
G|-----1-------1---------1-------1----|
C|--222-20--222-20----222-20--222-20--|

F|------------------------------------------------------------------------|
C|------------------------------------------------------------------------|
G|-----/22-/55-3-333-----/22-/55-3-333---77-22-/55-3-333-----2-/4-6-(x8)--|
C|--22----------------22----------------------------------22--------------|

F|---------------------------------------------------------------------------|
C|---------------------------------------------------------------------------|
G|-----/22-/55-3-333-----/22-/55-3-333-----/22-/55-3-333-------------6-(x8)--|
C|--22----------------22----------------22----------------222-444-66---------|

F|---------------------|
C|---------------------|
G|---------------------|
C|--2-2-22-2-22-2-2-2--|

0:45
F|---------------------------------------------------|
C|----------------5------------------------------12--|
G|---------/777-57-5-----------/10-10-10-8-10-12-----|
C|--2-(x8)------------5-5-(x7)-----------------------|

F|--------------------------------------------|
C|-/10-10-10-10-10----------------------------|
G|-----------------10-10----------------------|
C|-----------------------10-10-9-10-9-10-12\--|

F|--------------------------|
C|----------------/99999----|
G|----------77-99-------9\--|
C|--99-1212-----------------|

F|---------------------------------------------------|
C|----------------5----------------------------------|
G|---------/777-57-5-----------/10-10-10-8-10-12-12--|
C|--2-(x8)------------5-5-(x7)-----------------------|

F|-------------------------------------------------------------------|
C|----------------------------------------------------/999-----------|
G|----------------------------------------------77-99----------------|
C|--12-12-12-12-12-7-7-0-0-0-0-0-0-3-5--99-1212------------9-11-12\--|

F|------------------------------------|
C|------------------------------------|
G|-----1-------1---------1-------1----|
C|--222-20--222-20----222-20--222-20--|

F|------------------------------------|
C|------------------------------------|
G|-----1-------1---------1-------1----|
C|--222-20--222-20----222-20--222-20--|

1:15
F|------------------------------------------------------|
C|------------------------------------------------------|
G|---------------------------------------------/6-(x8)--|
C|--22--00022--00022-2-2-2-2-2-2-2--222-444-66----------|

F|--------------------------------------------------------|
C|--------------------------------------------------------|
G|-----/22-/55-3-333-----/22-/55-3-333-----/22-/55-3-333--|
C|--22----------------22----------------22----------------|

F|---------------------------------|
C|-----------------------/13-(x8)--|
G|-----------------10-10-----------|
C|--9-9-9-12-12-12-----------------|

F|---------------------------------|
C|---------------------------------|
G|---------------------------------|
C|--2-2/52--2-2/52--2-2/52--2-2-2--|

F|---------------------------------------------------|
C|----------------5------------------------------12--|
G|---------/777-57-5-----------/10-10-10-8-10-12-----|
C|--2-(x8)------------5-5-(x7)-----------------------|

F|--------------------------------------------|
C|-/10-10-10-10-10----------------------------|
G|-----------------10-10----------------------|
C|-----------------------10-10-9-10-9-10-12\--|

F|--------------------------|
C|----------------/99999----|
G|----------77-99-------9\--|
C|--99-1212-----------------|

F|---------------------------------------------------|
C|----------------5----------------------------------|
G|---------/777-57-5-----------/10-10-10-8-10-12-12--|
C|--2-(x8)------------5-5-(x7)-----------------------|

F|--------------------------------------------------------------------|
C|--------------------------------------------------------------------|
G|----------------------------------------------77-99-----------------|
C|--12-12-12-12-12-7-7-0-0-0-0-0-0-3-5--99-1212-------9-(x8)-9-7-5-0--|


(2:02) Dubstep part:
___________________________________________________________________
                                                                   |
F|--------------------------------------------------------------|  |
C|--------------------------------------------------------------|  |
G|--------------------------888------------------------888------|  |
C|--2---22-2-25-5--578--888-------2--322-322---5--578------888--|  |
                                                                   |
___________________________________________________________________|


F|----------------------------|
C|----------------------------|
G|----------------------------|
C|--2---32---32---32-2-(x14)--|

F|--------------------------------------------|
C|--------------------------------------------|
G|---------------------------------2-(x4)-----|
C|--32---32---32---32-32-32-2-(x6)--------30--|

F|---------------------------------------------------|
C|----------------5------------------------------12--|
G|---------/777-57-5-----------/10-10-10-8-10-12-----|
C|--2-(x8)------------5-5-(x7)-----------------------|

F|--------------------------------------------|
C|-/10-10-10-10-10----------------------------|
G|-----------------10-10----------------------|
C|-----------------------10-10-9-10-9-10-12\--|

F|--------------------------|
C|----------------/99999----|
G|----------77-99-------9\--|
C|--99-1212-----------------|

F|---------------------------------------------------|
C|----------------5----------------------------------|
G|---------/777-57-5-----------/10-10-10-8-10-12-12--|
C|--2-(x8)------------5-5-(x7)-----------------------|

F|-------------------------------------------------------------------|
C|----------------------------------------------------/999-----------|
G|----------------------------------------------77-99----------------|
C|--12-12-12-12-12-7-7-0-0-0-0-0-0-3-5--99-1212------------9-11-12\--|

3:00
F|--------------------------------------------|
C|--------------------------------------------|
G|--3-333-555------------3-333-555-------53---|
C|------------22-42-422------------22-46---5--|

F|-----------------------------------------------------|
C|------------------5----------------------------------|
G|--3-333-555-77-57--75--------------------7-7-9-9-10--|
C|------------------------10-10-(x7)-10-10-------------|

F|-------------------------------------------|
C|-------------------------------------------|
G|------------------7-7-9-9-12-12-14-14-14\--|
C|--9-9-11-11-12-12--------------------------|

F|------------------------------------|
C|------------------------------------|
G|-----1-------1---------1-------1----|
C|--222-20--222-20----222-20--222-20--|

F|------------------------------------------|
C|------------------------------------------|
G|-----1-------1---------1-------1----------|
C|--222-20--222-20----222-20--222-20---2~ --|
Advertisements

Leave a Reply

Fill in your details below or click an icon to log in:

WordPress.com Logo

You are commenting using your WordPress.com account. Log Out / Change )

Twitter picture

You are commenting using your Twitter account. Log Out / Change )

Facebook photo

You are commenting using your Facebook account. Log Out / Change )

Google+ photo

You are commenting using your Google+ account. Log Out / Change )

Connecting to %s