I My Me Mine – SpecialThanks (Bass tab)

Difficulty (1-5): 3
# Strings: 4
Tuning: EADG (Standard)
Reference: http://www.youtube.com/watch?v=4lcltTykIak

0:00
G|--13-13-13-10-10--13-13-10-10--11-11-8--8--8~ --|
D|--11-11-11-11-11--11-11-10-10--9--9--10-10-9~ --|
A|------------------------------------------------|
E|------------------------------------------------|

G|--13-13-13-10-10--13-13-10-10--11-11-8--8--8----------------------------|
D|--11-11-11-11-11--11-11-10-10--9--9--10-10-9----11-11-11--13--13-13-13--|
A|------------------------------------------------9--9--9---11--11-11-11--|
E|------------------------------------------------------------------------|

G|--10-10-13-10-10-13-10-13---10-10-11-10-10-11-10-11--|
D|--11-11-11-11-11-11-11-11---10-10-10-10-10-10-10-10--|
A|-----------------------------------------------------|
E|-----------------------------------------------------|

G|--8-8-11-8-8-11-8-11---------------------------|
D|--9-9-9--9-9-9--9-9----11-11-11--13--13-13-13--|
A|-----------------------9--9--9---11--11-11-11--|
E|-----------------------------------------------|

G|--10-10-13-10-10-10-13-10-13---10-10-11-10-10-10-11-10-11--|
D|--11-11-11-11-11-11-11-11-11---10-10-10-10-10-10-10-10-10--|
A|-----------------------------------------------------------|
E|-----------------------------------------------------------|

G|--8-8-11-8-8-8-11-8-11---------------------------|
D|--9-9-9--9-9-9-9--9-9----11-11-11--13--13-13-13--|
A|-------------------------9--9--9---11--11-11-11--|
E|-------------------------------------------------|

0:30
G|-----------------------------------|
D|-----------------------4---3-------|
A|----------------4-(x8)--44--44-46--|
E|--2-(x8)-4-(x8)--------------------|

G|--------------------------------|
D|--------------------------------|
A|----------------4-(x9)-4/6-4-3--|
E|--2-(x8)-4-(x8)-----------------|

G|--------------------------------------------------------------|
D|--------------------------------------------------------------|
A|----------------4-(x4)-3-(x4)-2-(x4)-1-(x4)-------------------|
E|--2-(x8)-4-(x8)-----------------------------2-(x8)-4-(x4)-4\--|

G|-----------------------------------------------|
D|-----------------------------------------------|
A|--4-(x4)--------------4------------------------|
E|---------4-(x4)-66-46--6-46--2-(x8)-4-(x6)-46--|

G|-----------------------------------------|
D|-----------------------------------------|
A|--4-(x4)--------------46-4---------------|
E|---------4-(x4)-66-46-----6--2-(x6)-234--|

1:11
G|--10-10-13-10-10-13-10-13---10-10-11-10-10-11-10-11--|
D|--11-11-11-11-11-11-11-11---10-10-10-10-10-10-10-10--|
A|-----------------------------------------------------|
E|-----------------------------------------------------|

G|--8-8-11-8-8-11-8-11---------------------------|
D|--9-9-9--9-9-9--9-9----11-11-11--13--13-13-13--|
A|-----------------------9--9--9---11--11-11-11--|
E|-----------------------------------------------|

G|--10-10-13-10-10-10-13-10-13---10-10-11-10-10-10-11-10-11--|
D|--11-11-11-11-11-11-11-11-11---10-10-10-10-10-10-10-10-10--|
A|-----------------------------------------------------------|
E|-----------------------------------------------------------|

G|--8-8-11-8-8-8-11-8-11---------------------------|
D|--9-9-9--9-9-9-9--9-9----11-11-11--13--13-13-13--|
A|-------------------------9--9--9---11--11-11-11--|
E|-------------------------------------------------|

G|-----------------------------------|
D|-----------------------4---3-------|
A|----------------4-(x8)--44--44-46--|
E|--2-(x8)-4-(x8)--------------------|

G|-------------------------------------|
D|-------------------------------------|
A|----------------4-(x8)-4/666-44-333--|
E|--2-(x8)-4-(x8)----------------------|

G|--------------------------------------------------------------|
D|--------------------------------------------------------------|
A|----------------4-(x4)-3-(x4)-2-(x4)-1-(x4)-------------------|
E|--2-(x8)-4-(x8)-----------------------------2-(x8)-4-(x4)-4\--|

1:52
G|-----------------------------------------------|
D|-----------------------------------------------|
A|--4-(x4)--------------4------------------------|
E|---------4-(x4)-66-46--6-46--2-(x8)-4-(x6)-46--|

G|-----------------------------------------|
D|-----------------------------------------|
A|--4-(x4)--------------46-4---------------|
E|---------4-(x4)-66-46-----6--2-(x6)-234--|

G|-------------------------------------|
D|-------------------------------------|
A|--4-(x8)-3-(x8)-2-(x6)-42------------|
E|--------------------------222-4-444--|

G|----------------5------------------------|
D|-------------/6---6----------------------|
A|--4-(x8)-333--------2-(x6)-42------------|
E|------------------------------222-4-444--|

G|----------------------------------------|
D|----------------------------4---3-------|
A|----------------4-44444-444--44--44-46--|
E|--2-(x8)-4-(x8)-------------------------|

G|---------------------------------|
D|----------------------------/11--|
A|----------------4-44444-4-4------|
E|--2-(x8)-4-(x8)------------------|

2:36
G|-----------------------------------------------|
D|-----------------------------------------------|
A|--4-(x4)--------------4------------------------|
E|---------4-(x4)-66-46--6-46--2-(x8)-4-(x6)-46--|

G|--------------------------------------------------|
D|--------------------------------------------------|
A|--4-(x4)--------------46-4--------------------22--|
E|---------4-(x4)-66-46-----6--2-(x6)-23-4-(x6)-----|

G|---------------------------------------------|
D|-----11-10-(x4)-9-(x4)-8-(x4)----------------|
A|--4/-----------------------------------------|
E|------------------------------2--2222-44444--|

G|-------------------------------------------|
D|-------------------------------------------|
A|--4-(x4)-3-(x4)-2-(x4)-1-(x4)--------------|
E|------------------------------2-(x6)-234\--|

G|--------13-------11-------10-------11-11-10-8-10~ --|
D|--11-11----11-11----11-11----11-11------------11~ --|
A|----------------------------------------------------|
E|----------------------------------------------------|
Advertisements

Leave a Reply

Fill in your details below or click an icon to log in:

WordPress.com Logo

You are commenting using your WordPress.com account. Log Out / Change )

Twitter picture

You are commenting using your Twitter account. Log Out / Change )

Facebook photo

You are commenting using your Facebook account. Log Out / Change )

Google+ photo

You are commenting using your Google+ account. Log Out / Change )

Connecting to %s