After School Stride – GUMI (Bass tab)

Difficulty (1-5): 5
# Strings: 4
Tuning: EADG (Standard)
Reference: http://www.youtube.com/watch?v=Q1Tdf9RwYxQ

0:00
G|--------------------------|
D|--------------------------|
A|--------------------------|
E|--0---20---40---20-4-5-7--|

G|--------------------------------------------------------|
D|--------------------------------------------------------|
A|--------------------------------------------------------|
E|--00-00-444-44-55-55-77-542--00-00-444-44-55-55-77-542--|

G|-------------------------------------------------------------|
D|----------------------------------------------7--99-77-66-4--|
A|-------------------------------------------5h7-7-------------|
E|--00-00-444-44-55-55-77-542--00-00-444-44-5------------------|

G|--------------------------------------------------|
D|----------------------------999-777-666-444-22-4--|
A|--------------------------//----------------------|
E|--0-0-(x28)-0h4-5-5-(x12)-------------------------|

G|--------------------------------------------------|
D|----------------------------999-777-666-444-22-4--|
A|--------------------------//----------------------|
E|--0-0-(x28)-0h4-5-5-(x12)-------------------------|

G|-------------------------------------------------------------|
D|----------------------------------------------7--99-77-66-4--|
A|-------------------------------------------5h7-7-------------|
E|--00-00-444-44-55-55-77-542--00-00-444-44-5------------------|

0:52
G|-------------------------------------------------------------------|
D|---------------------------------------------999-777-666-444-22-4--|
A|------------7-6-4-2-0--------------------6-7-----------------------|
E|--0-0-(x14)-----------4-2-0---5-5-(x8)-7---------------------------|

G|----------------------------------------|
D|----------------------------------------|
A|-----------/7-777-777\-----------5-7-9--|
E|--0-0-(x5)--------------0-0-(x8)--------|

               T       T
G|----------------------------------------------------|
D|------7------14p9h11-14p9h11--999-777-666-444-22-4--|
A|---5h7-7---9----------------------------------------|
E|--5------77-----------------------------------------|

G|------------------------------------------|
D|---------------6-79---------------/9-76---|
A|--------46-76-7------------46-76-7-----9--|
E|--54-54---------------54-54---------------|

G|---------------------------------------------|
D|---------------------------------------------|
A|-----------764--------------------------024--|
E|--5-5-(x8)------0-0-(x8)-754---2-2-(x8)------|

    T      T       T      T      T
G|------------------------------------|
D|------------------------------------|
A|--14p2h4-14p2h4--16p2h4-16p2h4-18/--|
E|------------------------------------|

1:26
G|------------------------------------------|
D|------------------------------------------|
A|--7-(x16)-6-(x16)-5-(x16)-4-(x12)-6-(x4)--|
E|------------------------------------------|

G|----------------------------------------------|
D|---------6/9-999-77-66---------6/9-999-77-66--|
A|--7-(x7)----------------6-(x7)----------------|
E|----------------------------------------------|

G|---------------------------------------|
D|---------5/7-777-66-44-----------------|
A|--5-(x7)---------------4-(x12)-6-(x4)--|
E|---------------------------------------|

G|-------------------------------------------------------|
D|-------------------------------------------------------|
A|--------------------2-(x10)-44-66-9--7-9-67------------|
E|--5-(x10)-55-44-22--------------------------12\---0~ --|

    T      T      T
G|------------------------------------|
D|------------------------------------|
A|--14p7h9-12p7h9-11/-----------------|
E|---------------------5-5-(x12)-5h7--|

G|-------------------------------------|
D|-------------------------------------|
A|--777-999-111111-121212-1111-99------|
E|--------------------------------0~ --|

    T      T      T      T       T      T      T
G|--------------------------------------------------|
D|--14p7h9-13p7h9-13p7h9-14p7h9--14p7h9-16p7h9-18/--|
A|--------------------------------------------------|
E|--------------------------------------------------|

G|-------------------------------------------------|
D|-------------------------------------------------|
A|----------------777-999-111111-121212-1414-1212--|
E|--5-5-(x12)-5h7----------------------------------|

2:06
G|-------------------------------------------|
D|--------------------------------------/97--|
A|--------46-76-97-64--------46-/76-/97------|
E|--54-54--------------54-54-----------------|

G|-------------------------------------------|
D|-------------------------------------------|
A|-------------------------------------------|
E|--5-5(x8)-542--0-0-(x8)-024--2-2-(x8)-459--|

             T      T      T
G|------------------------------|
D|------------------------------|
A|-----------14p7h9-16p7h9-14/--|
E|--7-7-(x6)--------------------|

G|------------------------------------------|
D|------------------------------------------|
A|--7-(x16)-6-(x16)-5-(x16)-4-(x12)-6-(x4)--|
E|------------------------------------------|

            T      T      T      T
G|---------------------------------------|
D|---------------------------------------|
A|--7-(x8)--14p7h9-14p7h9-12p7h9-12p7h9--|
E|---------------------------------------|

            T      T      T      T
G|---------------------------------------|
D|---------------------------------------|
A|--6-(x8)--14p7h9-14p7h9-12p7h9-12p7h9--|
E|---------------------------------------|

            T      T      T      T
G|-------------------------------------------------------|
D|-------------------------------------------------------|
A|--5-(x8)--12p5h7-12p5h7-11p5h7-11p5h7--4-(x12)-6-(x4)--|
E|-------------------------------------------------------|

           T      T      T      T
G|--------------------------------------|
D|--------------------------------------|
A|---------12p5h7-12p5h7-14p5h7-14p5h7--|
E|--5-(x8)------------------------------|

           T      T      T      T
G|--------------------------------------|
D|--------------------------------------|
A|---------14p7h9-14p7h9-16p7h9-16p7h9--|
E|--7-(x8)------------------------------|

             T       T       T
G|--------------------------------|
D|--14-16-13-14p9h11-16p9h11-14/--|
A|--------------------------------|
E|--------------------------------|

2:47
G|--------------------------------------------------------|
D|--------------------------------------------------------|
A|--------------------------------------------------------|
E|--00-00-444-44-55-55-77-542--00-00-444-44-55-55-77-542--|

G|-------------------------------------------|
D|-------------------------------------------|
A|-------------------------------------------|
E|--00-00-444-44-55-55-77-542--00-00-444-44--|

    T      T      T      T      T      T      T      T
G|-------------------------------------14p7h9-13p7h9-11--|
D|-----------------------13p7h9-14p7h9-------------------|
A|--11p7h9-12p7h9-14p7h9---------------------------------|
E|-------------------------------------------------------|

G|------------------------------------------|
D|------------------------------------------|
A|--7-(x16)-6-(x16)-5-(x16)-4-(x12)-6-(x4)--|
E|------------------------------------------|

G|---------------------------------------|
D|---------6/9-9-(x7)--------6/9-9-(x7)--|
A|--7-(x7)------------6-(x7)-------------|
E|---------------------------------------|

G|------------------------------------|
D|---------4/7-7-(x7)-----------------|
A|--5-(x7)------------4-(x12)-6-(x4)--|
E|------------------------------------|

3:21
G|-------------------------------------|
D|--------------------------6p5--------|
A|-----------------------------9p7-----|
E|--5-(x16)-7-(x16)-5-(x10)-------9p8--|

           T      T      T      T
G|--------------------------------------|
D|--------------------------------------|
A|---------14p7h9-14p7h9-16p7h9-16p7h9--|
E|--7-(x8)------------------------------|

G|--------------------------------------------------------|
D|--/14-16-13-14-(x6)-------------------------------------|
A|--------------------14\--7-9-6-7-(x6)-------------------|
E|--------------------------------------7\--0-2-00-000~ --|
Advertisements

Leave a Reply

Fill in your details below or click an icon to log in:

WordPress.com Logo

You are commenting using your WordPress.com account. Log Out / Change )

Twitter picture

You are commenting using your Twitter account. Log Out / Change )

Facebook photo

You are commenting using your Facebook account. Log Out / Change )

Google+ photo

You are commenting using your Google+ account. Log Out / Change )

Connecting to %s