Juvenile – One Ok Rock (Bass tab)

Difficulty (1-5): 4
# Strings: 4
Tuning: EADG (Standard)
Reference: http://www.dailymotion.com/video/xyotss_juvenile-one-ok-rock-bass-cover_music#.UWchXlfDk_l

0:23
G|------------------------------------------------------------------|
D|------------------------------------------------------------------|
A|----------------6--6-6-5--55-77------------------6--6-6-5--55-77--|
E|--2--2-2-2--2-2--------------------2--2-2-2--2-2------------------|

G|---------/6---------/6-------4h6-6/11-9h--------------|
D|-----------4----------4p2---------------11------------|
A|-----0h2--------2h4--------6----------------5--55-77--|
E|--2-----------2---------------------------------------|

G|------------4/6----------------4/6--------4h6-6/11-9h-------------------|
D|--------2/4-----4p2--------2/4-----4p2---------------11-9h11------------|
A|----2h4----------------2h4--------------6---------------------5--55-77--|
E|--2------------------2--------------------------------------------------|

G|-----------------------------------------------------------|
D|-------------------------4-(x7)----------------------------|
A|--5-5-(x7)-7-(x8)-4-(x8)----------5-5-(x7)-7-(x8)-9-(x15)--|
E|-----------------------------------------------------------|

G|---------------------------------------------------------------|
D|-------------------------4-(x7)--------------------------------|
A|--5-5-(x7)-7-(x8)-4-(x8)----------5-5-(x6)-7-7-(x6)-9-9-(x15)--|
E|---------------------------------------------------------------|

1:27
G|------------------------------------------------------------------|
D|------------------------------------------------------------------|
A|----------------6--6-6-5--55-77------------------6--6-6-5--55-77--|
E|--2--2-2-2--2-2--------------------2--2-2-2--2-2------------------|

G|---------/6---------/6-------4h6-6/11-9h--------------|
D|-----------4----------4p2---------------11------------|
A|-----0h2--------2h4--------6----------------5--55-77--|
E|--2-----------2---------------------------------------|

G|------------4/6----------------4/6--------4h6-6/11-9h-------------------|
D|--------2/4-----4p2--------2/4-----4p2---------------11-9h11------------|
A|----2h4----------------2h4--------------6---------------------5--55-77--|
E|--2------------------2--------------------------------------------------|

G|-----------------------------------------------------------|
D|-------------------------4-(x7)----------------------------|
A|--5-5-(x7)-7-(x8)-4-(x8)----------5-5-(x7)-7-(x8)-9-(x15)--|
E|-----------------------------------------------------------|

G|---------------------------------------------------------------|
D|-------------------------4-(x7)--------------------------------|
A|--5-5-(x7)-7-(x8)-4-(x8)----------5-5-(x6)-7-7-(x6)-9-9-(x15)--|
E|---------------------------------------------------------------|

2:45
G|-------------------------------------------------------------|
D|-------------------------------------------------------------|
A|-----------------------2--2-4----------------------2--2-4----|
E|--2--2-2-2--2-2-2--2-2--------2--2-2-2--2-2-2--2-2--------2--|

G|-----------------------------------------------------|
D|-----------------------------------------------------|
A|--------------------2--2-4----------------------2~ --|
E|--2-2-2--2-2-2--2-2--------2--2-2-2--2-2-2--2-2------|

G|-----------------------------------------------------------|
D|-------------------------4-(x7)----------------------------|
A|--5-5-(x7)-7-(x8)-4-(x8)----------5-5-(x7)-7-(x8)-9-(x15)--|
E|-----------------------------------------------------------|

G|---------------------------------------------------------------|
D|-------------------------4-(x7)--------------------------------|
A|--5-5-(x7)-7-(x8)-4-(x8)----------5-5-(x6)-7-7-(x6)-9-9-(x15)--|
E|---------------------------------------------------------------|

G|---------------------------------|
D|---------------------------------|
A|----------------6--6-6-5--55-77--|
E|--2--2-2-2--2-2------------------|
Advertisements

Leave a Reply

Fill in your details below or click an icon to log in:

WordPress.com Logo

You are commenting using your WordPress.com account. Log Out / Change )

Twitter picture

You are commenting using your Twitter account. Log Out / Change )

Facebook photo

You are commenting using your Facebook account. Log Out / Change )

Google+ photo

You are commenting using your Google+ account. Log Out / Change )

Connecting to %s