69 – One Ok Rock (Bass tab)

Difficulty (1-5): 3
# Strings: 4
Tuning: EADG (Standard)
Reference: http://www.youtube.com/watch?v=hlpau2jDEfk

0:23
G|-----------------------------------|
D|-----------------------------------|
A|----------5-(x16)---------2-(x16)--|
E|--2-(x16)---------0-(x16)----------|

G|-----------------------------------------------------------------------|
D|-----------------------------------------------------------------------|
A|-----------------------------------------------------------/22-02-320--|
E|--222-2-2-202-024--222-2-2-202-024--222-2-2-202-024--222-2-------------|

G|-----------------------------------------------------------------------|
D|-----------------------------------------------------------------------|
A|-----------------------------------------------------------/22-02-320--|
E|--222-2-2-202-024--222-2-2-202-024--222-2-2-202-024--222-2-------------|

G|-----------------------------------------------------------------------|
D|-----------------------------------------------------------------------|
A|-----------------------------------------------------------/22-02-320--|
E|--222-2-2-202-024--222-2-2-202-024--222-2-2-202-024--222-2-------------|

G|-----------------------------------------------------------------------|
D|-----------------------------------------------------------------------|
A|-----------------------------------------------------------/22-02-320--|
E|--222-2-2-202-024--222-2-2-202-024--222-2-2-202-024--222-2-------------|

1:21
G|----------------------------------------------------|
D|----------------------------------------------------|
A|----------5-(x16)-7-(x16)---------------------------|
E|--2-(x16)-----------------7p66-7p66-7p66-7p66-7777--|

G|----------------------------------------------------|
D|----------------------------------------------------|
A|----------5-(x16)-7-(x16)---------------------------|
E|--2-(x16)-----------------7p66-7p66-7p66-7p66-7777--|

G|-----------------------------------|
D|-----------------------------------|
A|----------5-(x16)---------2-(x6)\--|
E|--2-(x16)---------0-(x16)----------|

G|-----------------------------------|
D|-----------------------------------|
A|----------5-(x16)---------2-(x16)--|
E|--2-(x16)---------0-(x16)----------|

2:07
G|--11~ --\--7~ --7/9~ ---------------------|
D|-----------------------9~ --\-------------|
A|-------------------------------9\---------|
E|----------------------------------2-22-2--|

G|----------------------------------------------------|
D|----------------------------------------------------|
A|----------5-(x16)-7-(x16)---------------------------|
E|--2-(x16)-----------------7p66-7p66-7p66-7p66-7777--|

G|----------------------------------------------------|
D|----------------------------------------------------|
A|----------5-(x16)-7-(x16)---------------------------|
E|--2-(x16)-----------------7p66-7p66-7p66-7p66-7777--|

G|-------------------------------------------------------------|
D|-------------/11---------------------------------------------|
A|----------------11\----------/5-\----------------------------|
E|--2~ -024\------------2~ -02----------2~ -025\-----2~ -024\--|

3:06
G|-------------------------------------------------|
D|--/42---------/42---------/42--------/42---------|
A|-----4-/32-------4-/32-------4-/32------4-/32----|
E|----------42----------42----------42---------42--|

G|-------------------------------------------------|
D|--/42---------/42---------/42--------/42---------|
A|-----4-/32-------4-/32-------4-/32------4-/32----|
E|----------42----------42----------42---------42--|

G|------------------------------------------------------------------|
D|--------------------------5/7--7/9-76-------/97-67-7h9-9/11-------|
A|---------------/4-5-5-55-----5-------75--5h7----------------11-7--|
E|--2-2-22--2-2-2---------------------------------------------------|

G|---------------------------------------------------------|
D|------------9/11-9-11-11/12--11h12-12/14-12-11--12-11-9--|
A|--7/9--9h11----------------------------------------------|
E|---------------------------------------------------------|

G|-------9/11-9---------------------------|
D|--9h11--------9-9/11--7h97-6-7-76-------|
A|---------------------------------9~ -\--|
E|----------------------------------------|

3:47
G|----------------------------------------------------|
D|----------------------------------------------------|
A|----------5-(x16)-7-(x16)---------------------------|
E|--2-(x16)-----------------7p66-7p66-7p66-7p66-7777--|

G|----------------------------------------------------|
D|----------------------------------------------------|
A|----------5-(x16)-7-(x16)---------------------------|
E|--2-(x16)-----------------7p66-7p66-7p66-7p66-7777--|

G|-----------------------------------|
D|-----------------------------------|
A|----------5-(x16)---------2-(x16)--|
E|--2-(x16)---------0-(x16)----------|

G|-------------------------------------------------------------|
D|--/42---------/42---------/42--------/42---------------------|
A|-----4-/32-------4-/32-------4-/32------4-/32----------------|
E|----------42----------42----------42---------42----2~ -/15\--|
Advertisements

Leave a Reply

Fill in your details below or click an icon to log in:

WordPress.com Logo

You are commenting using your WordPress.com account. Log Out / Change )

Twitter picture

You are commenting using your Twitter account. Log Out / Change )

Facebook photo

You are commenting using your Facebook account. Log Out / Change )

Google+ photo

You are commenting using your Google+ account. Log Out / Change )

Connecting to %s