The Beginning – One Ok Rock (Bass tab)

Difficulty (1-5): 2
# Strings: 4
Tuning: EADG (Standard)
Reference: http://www.youtube.com/watch?v=PDpx29g8GDA

0:23
G|------------------------------------------------------------|
D|------------------------------------------------------------|
A|----------------3-(x8)-----------------------3-(x8)---------|
E|--5-(x8)-1-(x8)--------3-(x8)--5-(x8)-1-(x8)--------3-(x8)--|

G|------------------------------------------------|
D|------------------------------------------------|
A|----------------3-(x8)--------------------------|
E|--5-(x8)-1-(x8)--------3-(x8)--1-(x16)-3-(x16)--|

G|-----------------------------------|
D|-----------------------------------|
A|------------------3-(x16)----------|
E|--5-(x16)-1-(x16)---------3-(x16)--|

G|----------------------------------------------|
D|----------------------------------------------|
A|----------------------------------/7775-7775--|
E|--1-(x16)-3-(x16)-1-(x16)-0-(x8)--------------|

1:116
G|--------------------------------------------------------------------------|
D|--------------------------------------------------------------------------|
A|------------------3-(x16)--------------------------3-(x16)----------------|
E|--5-(x16)-1-(x16)---------3-(x16)--5-(x16)-1-(x16)---------3-(x8)-4-(x8)--|

G|------------------------------------------------------------|
D|------------------------------------------------------------|
A|----------------3-(x8)-----------------------3-(x8)---------|
E|--5-(x8)-1-(x8)--------3-(x8)--5-(x8)-1-(x8)--------3-(x8)--|

G|------------------------------------------------|
D|------------------------------------------------|
A|----------------3-(x8)--------------------------|
E|--5-(x8)-1-(x8)--------3-(x8)--1-(x16)-3-(x16)--|

G|--------------------------------------------------------------------|
D|--------------------------------------------------------------------|
A|------------------3-(x16)--------------------------3-(x16)----------|
E|--5-(x16)-1-(x16)---------3-(x16)--5-(x16)-1-(x16)---------3-(x16)--|

G|--------------------------------------|
D|--------------------------------------|
A|--------------------------------------|
E|--1-(x16)-3-(x16)-1-(x16)-0-(x8)-0~ --|

2:30
G|--------------------------------------------------------------------------|
D|--------------------------------------------------------------------------|
A|------------------3-(x16)--------------------------3-(x16)----------------|
E|--5-(x16)-1-(x16)---------3-(x16)--5-(x16)-1-(x16)---------3-(x8)-4-(x8)--|

G|--------------------------------------------------------------------------------|
D|--------------------------------------------------------------------------------|
A|------------------3-(x16)--------------------------------3-(x16)----------------|
E|--5-(x16)-1-(x16)---------3-(x8)-4-(x8)--5-(x16)-1-(x16)---------3-(x8)-4-(x8)--|

G|-------------------------------------------------------------------------|
D|-------------------------------------------------------------------------|
A|-------------------------------------------------------------------------|
E|--111-000-5-5-(x7)--111-000-5-5-(x7)--111-000-5-5-(x7)--3-(x9)-035-3333--|

G|---------------------------------------------------------------|
D|--------------------------------5--5h75------------------------|
A|--888-777-----------888-777----5-5-------888-777---------------|
E|----------5-5-(x7)----------5--------------------5-5-(x6)-0~ --|

3:46
G|--------------------------------------------------------------------|
D|--------------------------------------------------------------------|
A|------------------3-(x16)--------------------------3-(x16)----------|
E|--5-(x16)-1-(x16)---------3-(x16)--5-(x16)-1-(x16)---------3-(x16)--|

G|--------------------------------------|
D|--------------------------------------|
A|------------------3-(x16)-------------|
E|--5-(x16)-1-(x16)---------3-(x12)-32--|

G|--------------------------------------------------------|
D|--------------------------------------------------------|
A|------------------------------3-3-333-3-33--------------|
E|--1-1-111-1-11--3-3-333-3-33----------------5-5-555-53--|

G|-----------------------------------------------|
D|-----------------------------------------------|
A|-----------------------------------------------|
E|--1-1-111-1-11--3-3-333-3-33--0-0-000-0-001~ --|
Advertisements

Leave a Reply

Fill in your details below or click an icon to log in:

WordPress.com Logo

You are commenting using your WordPress.com account. Log Out / Change )

Twitter picture

You are commenting using your Twitter account. Log Out / Change )

Facebook photo

You are commenting using your Facebook account. Log Out / Change )

Google+ photo

You are commenting using your Google+ account. Log Out / Change )

Connecting to %s