Blah Blah Blah – SiM (Bass tab)

Difficulty (1-5): 4
# Strings: 4
Tuning: CGCF (Drop C)
Reference: http://www.youtube.com/watch?v=DGPXtCu0z9o

0:01
F|---------------------------|
C|---------------------------|
G|---------------------------|
C|--0----1-0----1-0-(x24)-0--|

F|--------------------------------------------------|
C|--------------------------------------------------|
G|-----/65---/53---/30---------/65---/53---/30------|
C|--00-----0-----0-----000--00-----0-----0-----000--|

F|--------------------------------------------------|
C|--------------------------------------------------|
G|-----/87---/75---/53---------/87---/75---/53------|
C|--00-----0-----0-----000--00-----0-----0-----000--|

F|----------------------------------------|
C|----------------54----------------------|
G|--------------35------------------------|
C|--570-0000-00------570-0000-00-0-0-0-0--|

F|----------------------------------------|
C|----------------54----------------------|
G|--------------35------------------------|
C|--570-0000-00------570-0000-00-0-0-0-0--|

0:37
F|-------------------------------------------|
C|-------------------------------------------|
G|-----------------3/533------------111------|
C|--/65-0-0-0--353--------/65-0-0-0-----333--|

F|---------------------------------------------|
C|---------------------------------------------|
G|-----------------3/533------------1111-------|
C|--/65-0-0-0--353--------/65-0-0-0------3333--|

F|--------------------------------------------------|
C|--------------------------------------------------|
G|--------------------------------------------------|
C|--6p500-6p500-6p500-0035--6p500-6p500-6p500-0035--|

F|---------------------------------------|
C|---------------------------------------|
G|---------------------------------------|
C|--6p500-6p500-6p500-0035--111-11-0000--|

F|-----------------------------------|
C|------578------------/310----------|
G|----5-----666-653-1-------333-10---|
C|--57---------------33-----------3--|

F|---------------------/32-----------|
C|------578---------------3-------3--|
G|----5-----666-653-1-------333-35---|
C|--57---------------33--------------|

F|-----------------------------------------------|
C|-----------/10-10-12--11-10-8--555-530---------|
G|--66-6-666-----------------------------111-0---|
C|--------------------------------------------3--|

F|---------------------------|
C|---------------------------|
G|---------------------------|
C|--11-11--11-11---33-33--3--|

1:22
F|-------------------------------------|
C|-------------------------------------|
G|-----------------------------10-10---|
C|--575-3033-333-0-3--575-3033---3--3--|

F|-------------------------------------|
C|-------------------------------------|
G|-----------------------------10-10---|
C|--575-3033-333-0-3--575-3033---3--3--|

F|--------------------------------------|
C|------310---------------310-----------|
G|-----5----111-10-------5----111-310---|
C|--5-5-----------33--5-5------------3--|

F|-------------------------------------|
C|------310---------------310----------|
G|-----5----111-10-------5----111------|
C|--5-5-----------33--5-5---------333--|

F|--------------------------------------------------|
C|--------------------------------------------------|
G|--------------------------------------------------|
C|--6p500-6p500-6p500-0035--6p500-6p500-6p500-0035--|

F|---------------------------------------|
C|---------------------------------------|
G|---------------------------------------|
C|--6p500-6p500-6p500-0035--111-11-0000--|

1:56
F|------------------------------------------------------|
C|------------------------------------310---------------|
G|-----------35--6-66-66-653--1-11-11------3-33-33-31---|
C|--5-55-55-5----------------------------------------3--|

F|------------------------------------------------------|
C|---------------------------------------------------3--|
G|-----------35--6-66-66-653--1-11-11-113--5-55-55-55---|
C|--5-55-55-5-------------------------------------------|

F|--------------------------------------------------------|
C|--------------------------------------------------------|
G|--66-6-666----------------------------------------------|
C|-----------/10-10-12--11-10-8--5-55-55-567-8-88-88-873--|

F|-----------------------------|
C|-----------------------------|
G|-----------------------------|
C|--11-11--11-11---33-33--3~ --|

2:25
F|-----------------------------------------------------------|
C|-----------------------------------------------------------|
G|--------------------5555-3333-------------------5555-3333--|
C|--6p500-6p500-6p500-----------6p500-6p500-6p500------------|

F|---------------------------------------------------------|
C|---------------------------------------------------------|
G|---------------------------------------------------------|
C|--6p500--11-11---6p500--20\---6p500--11-11---6p500--035--|

F|------35-5/7-7/11----------------------|
C|-----------------------------10-8-7----|
G|--/6-6------------12-10--8-10-------8--|
C|---------------------------------------|

F|----------------------53--|
C|-------------765-555-3----|
G|--6--68-65--5-------------|
C|--------------------------|

F|--------------------------------------------------|
C|--------------------------------------------------|
G|--------------------------------------------------|
C|--6p500-6p500-6p500-0035--6p500-6p500-6p500-0035--|

F|---------------------------------------|
C|---------------------------------------|
G|---------------------------------------|
C|--6p500-6p500-6p500-0035--111-11-0000--|

3:06
F|-----------------------------------|
C|------578------------/310----------|
G|----5-----666-653-1-------333-10---|
C|--57---------------33-----------3--|

F|---------------------/32-----------|
C|------578---------------3-------3--|
G|----5-----666-653-1-------333-35---|
C|--57---------------33--------------|

F|-----------------------------------------------|
C|-----------/10-10-12--11-10-8--555-530---------|
G|--66-6-666-----------------------------111-0---|
C|--------------------------------------------3--|

F|-------------------------------------------------------------|
C|-------------------------------------------------------------|
G|-------------------------------------------------------------|
C|--11-11--11-11---33-33--33-33---11-11--11-11---33-33--33-33--|

F|--------------------------------------------------|
C|--------------------------------------------------|
G|-----/65---/53---/30---------/65---/53---/30------|
C|--00-----0-----0-----000--00-----0-----0-----000--|

F|--------------------------------------------------------|
C|--------------------------------------------------------|
G|-----/87---/75---/53---------/87---/75---/53------------|
C|--00-----0-----0-----000--00-----0-----0-----000-0-0-0--|
Advertisements

Leave a Reply

Fill in your details below or click an icon to log in:

WordPress.com Logo

You are commenting using your WordPress.com account. Log Out / Change )

Twitter picture

You are commenting using your Twitter account. Log Out / Change )

Facebook photo

You are commenting using your Facebook account. Log Out / Change )

Google+ photo

You are commenting using your Google+ account. Log Out / Change )

Connecting to %s