Seken Shirazu no Uchu Hikoshi – One Ok Rock (Bass tab)

Difficulty (1-5): 4
# Strings: 4
Tuning: EADG (Standard)
Reference: http://www.youtube.com/watch?v=_KRVjoaYwBE

0:12
G|----------6--------------6--------------6-------------|
D|------------------------------------------------------|
A|---7-44----47-44--7-44----47-44--7-44----47-44--7-44--|
E|--7-7--------7---7-7--------7---7-7--------7---7-7----|

G|--------------------------------------------|
D|------222------------------222--------------|
A|--444-----000-2222222--444-----000-2222222--|
E|--------------------------------------------|

G|--------------------------------------------|
D|------222------------------222--------------|
A|--444-----000-2222222--444-----000-2222222--|
E|--------------------------------------------|

G|--------------------------------------------|
D|------222------------------222--------------|
A|--444-----000-2222222--444-----000-2222222--|
E|--------------------------------------------|

G|---------------------------------------|
D|------222------------------222---------|
A|--444-----000-2222222--444-----000-22--|
E|---------------------------------------|

0:44
G|--------------------------------------------------------|
D|--------------------------------------------------------|
A|--------------------------------------------------------|
E|--5-(x12)-7-(x4)-2-(x16)--5-(x12)-7-(x4)-2-(x8)-0-(x8)--|

G|--------------------------------------------------------|
D|--------------------------------------------------------|
A|--------------------------------------------------------|
E|--5-(x12)-7-(x4)-2-(x16)--5-(x12)-7-(x4)-2-(x8)-0-(x8)--|

G|--------------------------------------------|
D|------222------------------222--------------|
A|--444-----000-2222222--444-----000-2222222--|
E|--------------------------------------------|

G|--------------------------------------------|
D|------222------------------222--------------|
A|--444-----000-2222222--444-----000-2222222--|
E|--------------------------------------------|

G|-----------4-6-----------4-6--|
D|----2-4-66--------2-4-66------|
A|--44------------44------------|
E|------------------------------|

G|-----------4-6----------------|
D|----2-4-66--------2-----------|
A|--44------------44--4---------|
E|----------------------55-55\--|

G|--------------------------------------------------------|
D|--------------------------------------------------------|
A|--------------------------------------------------------|
E|--5-(x12)-7-(x4)-2-(x16)--5-(x12)-7-(x4)-2-(x8)-0-(x8)--|

G|--------------------------------------------------------|
D|--------------------------------------------------------|
A|--------------------------------------------------------|
E|--5-(x12)-7-(x4)-2-(x16)--5-(x12)-7-(x4)-2-(x8)-0-(x8)--|

1:53
G|----------------------------------------------------------4/6-4---|
D|---------------------------------------------------------------6--|
A|---7-44--7-44----7-44--7-44----7-44--7-44----7-44--2h42h4---------|
E|--7-7---7-7-----7-7---7-7-----7-7---7-7-----7-7-------------------|

G|----------------------------------------|
D|----------------------------------------|
A|--24-----------------24-----------------|
E|-----32--3-202-3202-----32--3-202-3202--|

G|-----------------------------------4-4/6--|
D|--------------------------------/6--------|
A|--24-----------------24-------2-----------|
E|-----32--3-202-3202-----32--24------------|

G|--4/666-4/666-4/666-4-------4/666-4/666-4/666-4-------|
D|---------------------654-----------------------654----|
A|------------------------77------------------------77--|
E|------------------------------------------------------|

G|--4/6-4----------------------------------|
D|-------654-24542-------------------------|
A|----------------42-4-(x8)-7-(x4)----///--|
E|-----------------------------------------|

G|---------------------------------------------------------------|
D|---------------------------------------------------------------|
A|---------------------------------------------------------------|
E|--5-(x12)-7-(x4)-2-(x9)-02-(x6)--5-(x12)-7-(x4)-2-(x8)-0-(x8)--|

G|-------------------------------------------------------------------|
D|-------------------------------------------------------------------|
A|-------------------------------------------------------------------|
E|--5-(x12)-7-(x4)-2-(x5)-02-(x7)-022--5-(x12)-7-(x4)-2-(x8)-0-(x8)--|

2:50
G|-------------------------------------------|
D|-------64-4--------------------------------|
A|------7--7--74---4-------------------------|
E|--555---------757-5--222-022-022-022-0222--|

G|---------------------------------------------|
D|---------------------------------------------|
A|-----------------7/977-7/977-7/977-------2---|
E|--5-(x12)-7-(x4)-------------------970-24-4--|

G|-------------------------------------------------------------|
D|-----------------------------------------44-66-77-99---------|
A|-----------------------------------------------------7-(x8)--|
E|--5-(x12)-7-(x4)-2-(x16)--5-(x12)-7-(x4)---------------------|

G|----------------------------------------------|
D|------------------9---------------------9-----|
A|----7-9-9/11-9/11--911----7-9-9/11-9/11--911--|
E|--99--------------------99--------------------|

G|---------------------------------------------|
D|------------------9--------------------------|
A|----7-9-9/11-9/11--911----7-9-9/11-9/11~ -\--|
E|--99--------------------99-------------------|
Advertisements

Leave a Reply

Fill in your details below or click an icon to log in:

WordPress.com Logo

You are commenting using your WordPress.com account. Log Out / Change )

Twitter picture

You are commenting using your Twitter account. Log Out / Change )

Facebook photo

You are commenting using your Facebook account. Log Out / Change )

Google+ photo

You are commenting using your Google+ account. Log Out / Change )

Connecting to %s