ONION! – One Ok Rock (Bass tab)

Difficulty (1-5): 3
# Strings: 4
Tuning: EADG (Standard)
Reference: http://www.youtube.com/watch?v=82-VbsjRf7s

0:01
G|-----------------------------|
D|-----------------------------|
A|-----------------------------|
E|--44-44-22-22---11-11-00-22--|

G|-----------------------------------------|
D|-----------------------------------------|
A|-----------------------------------------|
E|--4-(x16)-2-(x16)-1-(x16)-0-(x8)-2-(x7)--|

G|---------------------------------|
D|---------------------------------|
A|---------------------------------|
E|--44-44-22-22-11-11-00-22-2-2-2--|

G|------------------------------------|
D|------------------------------------|
A|------------------------------------|
E|--4-(x16)-2-(x16)-1-(x16)-0-(x7)-2--|

G|------------------------------------------------|
D|------------------------------------------------|
A|------------------------------------------------|
E|--4-4(x14)-2-2-(x14)-1-1-(x14)-0-0-(x7)-2-(x7)--|

G|------------------------------------------------|
D|------------------------------------------------|
A|------------------------------------------------|
E|--4-4(x14)-2-2-(x14)-1-1-(x14)-0-0-(x7)-2-(x8)--|

1:07
G|---------------------------------|
D|---------------------------------|
A|---------------------------------|
E|--44-44-22-22-11-11-00-22-2-2-2--|

G|-----------------------------------------|
D|-----------------------------------------|
A|-----------------------------------------|
E|--4-(x16)-2-(x16)-1-(x16)-0-(x8)-2-(x7)--|

G|------------------------------------------------|
D|------------------------------------------------|
A|------------------------------------------------|
E|--4-4(x14)-2-2-(x14)-1-1-(x14)-0-0-(x7)-2-(x7)--|

G|------------------------------------------------|
D|------------------------------------------------|
A|------------------------------------------------|
E|--4-4(x14)-2-2-(x14)-1-1-(x14)-0-0-(x7)-2-(x8)--|

1:59
G|----------------------------------------------------------------|
D|----------------------------------4/644-4/644-34----------------|
A|----------------------------------------------------------------|
E|--4-(x8)-40-2424--2-(x14)-1-(x8)-----------------0-(x8)-2-(x4)--|

G|-----------------------------3h4--------------3h4-----|
D|--------------------------------4h6--------------4h6--|
A|---------/11-(x6)---------2h4--------------2h4--------|
E|--4-(x8)-----------2-(x8)-----------1-(x8)------------|

G|------------3h4-------------|
D|---------------46-4---------|
A|---------2h4--------6-4-----|
E|--0-(x8)----------------7\--|

G|------------------------------------------------|
D|------------------------------------------------|
A|------------------------------------------------|
E|--4-4(x14)-2-2-(x14)-1-1-(x14)-0-0-(x7)-2-(x7)--|

G|----------------------------------------------|
D|----------------------------------------------|
A|----------------------------------------------|
E|--4-4(x14)-2-2-(x14)-1-1-(x15)-0-(x8)-2-(x7)--|

G|----------------------------------------------|
D|----------------------------------------------|
A|----------------------------------------------|
E|--4-4(x14)-2-2-(x14)-1-1-(x15)-0-(x8)-2-(x8)--|

2:57
G|-----------------------------|
D|-----------------------------|
A|-----------------------------|
E|--44-44-22-22---11-11-00-22--|

G|------------------------------------|
D|------------------------------------|
A|------------------------------------|
E|--44-44-22-22-11-11-00-22-020-234\--|
Advertisements

Leave a Reply

Fill in your details below or click an icon to log in:

WordPress.com Logo

You are commenting using your WordPress.com account. Log Out / Change )

Twitter picture

You are commenting using your Twitter account. Log Out / Change )

Facebook photo

You are commenting using your Facebook account. Log Out / Change )

Google+ photo

You are commenting using your Google+ account. Log Out / Change )

Connecting to %s