Be The Light – One Ok Rock (Bass tab)

Difficulty (1-5): 2
# Strings: 4
Tuning: Eb Ab Db Gb (Half Step Down)
Reference: http://www.youtube.com/watch?v=32Pmt9remI4

Optional: Slide between notes (This works best with fretless, but can still sound good with a defretter effect like I used)

0:14
Gb|----------------------------------------------| <|-
Db|----------------------------------------------|  | Play
Ab|----------------------------------------------|  |6 Times
Eb|--77-7-7-77\-22-2-2-22--44-4-4-44--00-0-0-00--| <|-

Gb|----------------------------------------------|
Db|----------------------------------------------|
Ab|----------------------------------------------|
Eb|--44-4-4-44--00-0-0-00--77-7-7-77--22-2-2-22--|

Gb|-----------------------------------------------|
Db|-----------------------------------------------|
Ab|-----------------------------------------------|
Eb|--44-4-4-44--00-0-0-00--22-2-2-22\-22-2-2-22\--|

1:48
Gb|--------------------------------------------|
Db|-------------------6\-----------------------|
Ab|-------679\-------6----77-642---------69----|
Eb|--77-9-------44-67-----------2/--77-9---7\--|

Gb|--------------------------------------------|
Db|-------------------6\-----------------------|
Ab|-------679\-------6----77-642---------69----|
Eb|--77-9-------44-67-----------2/--77-9---7\--|

Gb|----------------------------------------------------|
Db|--------4\------------------4\----------------------|
Ab|-------6----77-6-67\-------6----77-6-67\--99--------|
Eb|--44-67---------7-----44-67---------7--------96-42--|

Gb|--------------------------------------------------|
Db|--------------------------------------------------|
Ab|-------------6-99-9-9-99-6-----------6-77-7-7-77--|
Eb|--/77-7-7-77---------------44-4-4-44--------------|

Gb|--------------------------------------------------|
Db|--------------------------------------------------|
Ab|-------------6-99-9-9-99-6-----------6-77-7-7-77--|
Eb|--/77-7-7-77---------------44-4-4-44--------------|

Gb|---------------------------------------------|
Db|---------------------------------------------|
Ab|--------6-99-9-9-99-6-----------6-77-7-7-77--|
Eb|--/7------------------44-4-4-44--------------|

Gb|--------------------------------------------------|
Db|--------------------------------------------------|
Ab|-------------6-99-9-9-99-6-----------6-77-7-7-77--|
Eb|--/77-7-7-77---------------44-4-4-44--------------|

3:13
Gb|-----------------------------------------------|
Db|-----------------------------------------------|
Ab|-------------6-77-7-7-77-----------------------|
Eb|--/44-4-4-44-------------77-7-7-77\-22-2-2-22--|

Gb|------------------------------------------------|
Db|------------------------------------------------|
Ab|-------------6-77-7-7-77-----------4------------|
Eb|--/44-4-4-44-------------22-2-2-22---22-2-2-22--|

Gb|-----------------------------------|
Db|-----------------------------------|
Ab|-----99-9-9-99---99-9-9-9-997-6-4--|
Eb|--2/-----------9-------------------|

Gb|--------------------------------------------|
Db|-------------------6\-----------------------|
Ab|-------679\-------6----77-642---------69----|
Eb|--77-9-------44-67-----------2/--77-9---7\--|

Gb|--------------------------------------------|
Db|-------------------6\-----------------------|
Ab|-------679\-------6----77-642---------69----|
Eb|--77-9-------44-67-----------2/--77-9---7\--|

Gb|----------------------------------------------------------|
Db|--------4\------------------4\----------------------------|
Ab|-------6----77-6-67\-------6----77-6-67\--99--------------|
Eb|--44-67---------7-----44-67---------7--------96-42-2/7~ --|

4:32
Gb|----------------------------------------------| <|-
Db|----------------------------------------------|  | Play
Ab|----------------------------------------------|  |4 Times
Eb|--77-7-7-77\-22-2-2-22--44-4-4-44--00-0-0-00--| <|-
Advertisements

Leave a Reply

Fill in your details below or click an icon to log in:

WordPress.com Logo

You are commenting using your WordPress.com account. Log Out / Change )

Twitter picture

You are commenting using your Twitter account. Log Out / Change )

Facebook photo

You are commenting using your Facebook account. Log Out / Change )

Google+ photo

You are commenting using your Google+ account. Log Out / Change )

Connecting to %s