The Same As… – One Ok Rock (Bass tab)

Difficulty (1-5): 3
# Strings: 4
Tuning: DADG (Drop D)
Reference: http://www.dailymotion.com/video/xy0ggw_the-same-as-one-ok-rock-bass-cover_music#.UTm5UVcRldx

0:49
G|------------------------------------------------|
D|------------------------------------------------|
A|--1-(x8)-3-(x8)----------1-(x8)-3-(x8)----------|
D|----------------0-(x16)----------------0-(x16)--|

G|------------------------------------------------|
D|------------------------------------------------|
A|--1-(x8)-3-(x8)----------1-(x8)-3-(x8)----------|
D|----------------0-(x16)----------------0-(x16)--|

G|------------------------------------------------|
D|------------------------------------------------|
A|--1-(x8)-3-(x8)----------1-(x8)-3-(x8)----------|
D|----------------0-(x16)----------------0-(x16)--|

G|-------------------------------------------------------------|
D|-------------------------------------------------------------|
A|--1-(x8)-3-(x5)-034-5-(x16)---1-(x8)-3-(x5)-034-5-(x8)-------|
D|--------------------------------------------------------3~ --|

G|------------------------------------------------------|
D|------------------------------------------------------|
A|--1-(x8)-3-(x8)----------1-(x8)-3-(x8)----------------|
D|----------------0-(x16)----------------0-(x8)-3-(x8)--|

G|------------------------------------------------|
D|------------------------------------------------|
A|--1-(x8)-3-(x8)----------1-(x8)-3-(x8)----------|
D|----------------0-(x16)----------------3-(x16)--|

2:02
G|------------------------------------------------|
D|------------------------------------------------|
A|--1-(x8)-3-(x8)----------1-(x8)-3-(x8)----------|
D|----------------0-(x16)----------------0-(x16)--|

G|-------------------------------------------------------------|
D|-------------------------------------------------------------|
A|--1-(x8)-3-(x5)-034-5-(x16)---1-(x8)-3-(x5)-034-5-(x8)-------|
D|--------------------------------------------------------3~ --|

G|------------------------------------------------------|
D|------------------------------------------------------|
A|--1-(x8)-3-(x8)----------1-(x8)-3-(x8)----------------|
D|----------------0-(x16)----------------0-(x8)-3-(x8)--|

G|----------------------------------------|
D|----------------------------------------|
A|--1-(x8)-3-(x8)----------1-(x8)-3-(x8)--|
D|----------------0-(x16)-----------------|

2:47
G|---------------------------------------------|
D|--------------15----14h15-------14----14h15--|
A|--------15-----------------------------------|
D|--15-15----15----15-------15-15----15--------|

G|---------------------------------------------|
D|--------------15----14h15-------14----14h15--|
A|--------15-----------------------------------|
D|--14-14----14----14-------14-14----14--------|

G|---------------------------------------------|
D|--------------15----14h15-------14----14h15--|
A|--------15-----------------------------------|
D|--12-12----12----12-------12-12----12--------|

G|--------------10----9h10-------9h10-12-10-9-----|
D|--------10----------------------------------10--|
A|------------------------------------------------|
D|--10-10----10----10------10-10------------------|

G|---------------------------------------------|
D|--------------15----14h15-------14----14h15--|
A|--------15-----------------------------------|
D|--15-15----15----15-------15-15----15--------|

G|---------------------------------------------|
D|--------------15----14h15-------14----14h15--|
A|--------15-----------------------------------|
D|--14-14----14----14-------14-14----14--------|

G|---------------------------------------------|
D|--------------15----14h15-------14----14h15--|
A|--------15-----------------------------------|
D|--12-12----12----12-------12-12----12--------|

G|--------------10----9h10-------9h10-12-10-9-----|
D|--------10----------------------------------10--|
A|------------------------------------------------|
D|--10-10----10----10------10-10------------------|

3:09
G|--------------------------------------------------------------------|
D|--------------------------------------------------------------------|
A|--8-(x8)-10-(x8)-13-(x12)-12-(x4)--8-(x8)-10-(x8)-------------------|
D|--------------------------------------------------8-(x8)-10-(x8)~ --|

G|------------------------------------------------------|
D|------------------------------------------------------|
A|--1-(x8)-3-(x8)----------1-(x8)-3-(x8)----------------|
D|----------------0-(x16)----------------0-(x8)-3-(x8)--|

G|------------------------------------------------------|
D|------------------------------------------------------|
A|--1-(x8)-3-(x8)----------1-(x8)-3-(x8)----------------|
D|----------------0-(x16)----------------0-(x8)-3-(x8)--|

G|------------------------------------------------|
D|------------------------------------------------|
A|--1-(x8)-3-(x8)----------1-(x8)-3-(x8)----------|
D|----------------0-(x16)----------------0-(x16)--|

G|----------------------------------------|
D|----------------------------------------|
A|--1-(x8)-3-(x8)----------1-(x8)-3-(x8)--|
D|----------------0-(x16)-----------------|

G|---------------------------------------------|
D|--------------15----14h15-------14----14h15--|
A|--------15-----------------------------------|
D|--15-15----15----15-------15-15----15--------|

G|--------------------------------------------------------------|
D|--------------15----14h15-------14----14h15-14----------------|
A|--------15-------------------------------------15-------------|
D|--15-15----15----15-------15-15----15--------------3-(x31)~ --|
Advertisements

Leave a Reply

Fill in your details below or click an icon to log in:

WordPress.com Logo

You are commenting using your WordPress.com account. Log Out / Change )

Twitter picture

You are commenting using your Twitter account. Log Out / Change )

Facebook photo

You are commenting using your Facebook account. Log Out / Change )

Google+ photo

You are commenting using your Google+ account. Log Out / Change )

Connecting to %s