Hitorigoto Lonelyna – One Ok Rock (Bass tab)

Difficulty (1-5): 3
# Strings: 4
Tuning: EADG (Standard)
Reference: http://www.youtube.com/watch?v=16K1MJdCrk8

0:56
G|-------------------------------------------------------------------|
D|-------------------------------------------------------------------|
A|-----------------------------------------------------7-7---55------|
E|--557-72-577-222--557-72-577-222--522-25-22-2-222--00---0-0---555--|

G|-------------------------------------------------------------------|
D|-------------------------------------------------------------------|
A|-----------------------------------------------------7-7---55------|
E|--557-72-577-222--557-72-577-222--522-25-22-2-222--00---0-0---555--|

G|----------------------------------------------------------------------|
D|----------------------------------------------------------------------|
A|----------5---4------------------------5-----------555-5---55-575-44--|
E|--7---3-----------557-72-577-222--333-3--33-3-333-------55------------|

G|-----------------------------------------------------|
D|-----------------------------------------------------|
A|--------------------------------------4-(x8)-1-(x8)--|
E|--7-(x8)-3-(x8)-5-(x8)-2-(x8)-3-(x16)----------------|

G|------------------------------------------------------------|
D|------------------------------------------------------------|
A|--------------------------------------7-(x8)-5-(x4)-4-(x3)--|
E|--7-(x8)-3-(x8)-5-(x8)-2-(x8)-3-(x16)-----------------------|

1:55
G|-------------------------------------------------------------------|
D|-------------------------------------------------------------------|
A|-----------------------------------------------------7-7---55------|
E|--557-72-577-222--557-72-577-222--522-25-22-2-222--00---0-0---555--|

G|--------------------------------------------------|
D|--------------------------------------------------|
A|--------------------------5--5-(x14)--4--4-(x14)--|
E|--7--7-(x14)--3--3-(x14)--------------------------|

G|------------------------------------------------------|
D|------------------------------------------------------|
A|-----------------------5-----------555-5---55-575-44--|
E|--557-72-577-222--333-3--33-3-333-------55------------|

G|-----------------------------------------------------|
D|-----------------------------------------------------|
A|--------------------------------------4-(x8)-1-(x8)--|
E|--7-(x8)-3-(x8)-5-(x8)-2-(x8)-3-(x16)----------------|

G|------------------------------------------------------------|
D|------------------------------------------------------------|
A|--------------------------------------7-(x8)-5-(x4)-4-(x3)--|
E|--7-(x8)-3-(x8)-5-(x8)-2-(x8)-3-(x16)-----------------------|

G|-----------------------------------------------------------|
D|-----------------------------------------------------------|
A|--------7-(x8)-5-(x4)-7-(x3)---------7-(x8)-5-(x4)-7-(x3)--|
E|--557--------------------------557-------------------------|

2:54
G|---------------------------------------------------------------------|
D|---------------------------------------------------------------------|
A|---------------------------------------------------------------------|
E|--557-72-577-222--557-72-577-222--557-72-577-222--557-72-577-7520~ --|

G|------------------------------------------------------9h11------------|
D|--7-8-9---------------------------------------------------9h11--------|
A|---------7----------------------------------------------------7h9-----|
E|------------3---557-72--778-83--8810-105--101012-127-------------7h9--|

G|-----------------------------------------------------|
D|-----------------------------------------------------|
A|--------------------------------------4-(x8)-1-(x8)--|
E|--7-(x8)-3-(x8)-5-(x8)-2-(x8)-3-(x16)----------------|

G|-------------------------------------------------------------|
D|-------------------------------------------------------------|
A|---------------------------------------44--44-77-997-997-97--|
E|--7-(x8)-3-(x8)-5-(x8)-2-(x8)-3-(x16)----44------------------|

G|-----------------------3-(x4)-6-(x4)-776-797-67-976-------|
D|---------------------------------------------------97-----|
A|-----------------------------------------------------979--|
E|--7-(x8)-3-(x8)-5-(x8)------------------------------------|

G|------------------------|
D|------------------------|
A|--7-(x8)-5-(x4)-4-(x3)--|
E|------------------------|

3:53
G|------------------------------------------------------------6h7-66-7p6---|
D|----------------------------------------------------------------------7--|
A|-----------------------------------------------------7-7-----------------|
E|--557-72-577-222--557-72-577-222--522-25-22-2-222--00---0-0--------------|

G|----------------------------7h99---------------------------------------|
D|-----------------------------------------------------------------------|
A|----------------------------------------------------7-7---55-777-------|
E|--557-72-577-222--557-72-577-----522-25-22-2-222--00---0-0-------577\--|
Advertisements

Leave a Reply

Fill in your details below or click an icon to log in:

WordPress.com Logo

You are commenting using your WordPress.com account. Log Out / Change )

Twitter picture

You are commenting using your Twitter account. Log Out / Change )

Facebook photo

You are commenting using your Facebook account. Log Out / Change )

Google+ photo

You are commenting using your Google+ account. Log Out / Change )

Connecting to %s