Queen of Flowers – Sherbet Clock (Bass tab)

Difficulty (1-5): 4
# Strings: 4
Tuning: EADG (Standard)
Reference: http://www.youtube.com/watch?v=oFsuY9LmUzY

0:02
G|-----------------------------------------|
D|------------------------------------86---|
A|--8-(x16)-4-(x16)-6-(x16)--------686--6--|
E|--------------------------8-(x9)---------|

G|--------------------------------------------------------------10--|
D|------------------------------------------------------------------|
A|--8-(x8)-6-(x8)-4-(x8)-3(x8)---------------4-(x8)-6-(x8)-8-8-8----|
E|-----------------------------6-(x8)-8-(x8)------------------------|

G|-------------------------------|
D|-------------------------------|
A|--------8-6---4-3---------4-6--|
E|--/19\--------------6-8--------|

G|-----10----8-----6-----5------------------6-----------|
D|---10-----8-----6-----5-----8------10----6------------|
A|--8------6-----4-----3-----8-----10-----4----6-6-7-7--|
E|--------------------------6-----8---------------------|

G|---------------------------------------|
D|---------------------------------------|
A|--8-88-888--6-66-666--4-44-44-333-333--|
E|---------------------------------------|

G|-------------------------------------------|
D|-------------------------------------------|
A|----------------------4-44-444--6666-7777--|
E|--6-66-666--8-88-888-----------------------|

G|---------------------------------------|
D|---------------------------------------|
A|--666-444---444-333-----------444-666--|
E|----------------------666-888----------|

G|-----------------------------------------|
D|------------------------------------86---|
A|--8-(x16)-4-(x16)-6-(x16)--------686--6--|
E|--------------------------8-(x9)---------|

G|--------------------------------------------------------------10-----|
D|---------------------------------------------------------------------|
A|--8-(x8)-6-(x8)-4-(x8)-3(x8)---------------4-(x8)-6-(x8)-8-8-8----8--|
E|-----------------------------6-(x8)-8-(x8)---------------------------|

1:47
G|----------------------------------------8/10-8------|
D|----------66-5----6-68-10-11-10---86-6h8------10-8--|
A|-------8-8----6--8-8-----------11-------------------|
E|--/15\----------------------------------------------|

G|--13-12-10-8-10------------------------8/10--|
D|-----------------10-86-568-6-810-6-----------|
A|-----------------------------------8--8------|
E|---------------------------------------------|

G|-----------------------------------------------------------|
D|-----------------------------------------------------------|
A|--4444-6-666-7777--8--88--888\--4444-6666-777--8-88--888\--|
E|-----------------------------------------------------------|

G|-------------------------------------------------------------------------|
D|-------------------------------------------------------------------------|
A|--44-66-7-777-8-8-8--4-66-7-777-8-8-8--4-66-7-777-8-8-8--4-66-7-77-/15\--|
E|-------------------------------------------------------------------------|

G|------------------------------------------------------------------|
D|------------------------------------------------------------------|
A|--8-(x8)-6-(x8)-4-(x8)-3-(x8)---------------4-(x8)-6-(x4)-7-(x4)--|
E|------------------------------6-(x8)-8-(x8)-----------------------|

G|------------------------------------------------------------------|
D|------------------------------------------------------------------|
A|--8-(x8)-6-(x8)-4-(x8)-3-(x8)---------------4-(x8)-6-(x4)-7-(x4)--|
E|------------------------------6-(x8)-8-(x8)-----------------------|

G|------------------------------------------------------------|
D|------------------------------------------------------------|
A|--886-666-443-333---------446-666--886-666-443-333----------|
E|------------------668-888--------------------------668-888--|

G|-------------------------------------------------|
D|----------------6-(x8)-10-(x8)----6-8-10-11-10\--|
A|--4-(x8)-6-(x8)-----------------8----------------|
E|-------------------------------------------------|

3:06
G|----------------------------------------------|
D|--/15~ -11~ -13~ -11h13-13/14~ \--------------|
A|----------------------------------8--6--4--3--|
E|----------------------------------------------|

G|-------------------------------|
D|-------------------------------|
A|------------------444-444-666--|
E|--666-666-888-888--------------|

G|-----------------------------------------|
D|------------------------------------86---|
A|--8-(x8)-4-(x16)-6-(x16)--------686---6--|
E|--------------------------8-(x9)---------|

G|-------------------------------------------------------------|
D|-------------------------------------------------------------|
A|--8-(x8)-6-(x8)-4-(x8)-333------------------444-444-666-666--|
E|----------------------------666-666-888-888------------------|

G|--------------------8---------8----8-10--|
D|----6-8-6-8-10-8-10---10-8-10---10-------|
A|--8--------------------------------------|
E|-----------------------------------------|

G|--------------------8---------8----8-9-10\--|
D|----6-8-6-8-10-8-10---10-8-10---10----------|
A|--8-----------------------------------------|
E|--------------------------------------------|

G|--/13-12-10-12-13------------------------------------|
D|------------------13-10-13-10-----------10--10/15~ --|
A|------------------------------13-11-13---------------|
E|-----------------------------------------------------|
Advertisements

Leave a Reply

Fill in your details below or click an icon to log in:

WordPress.com Logo

You are commenting using your WordPress.com account. Log Out / Change )

Twitter picture

You are commenting using your Twitter account. Log Out / Change )

Facebook photo

You are commenting using your Facebook account. Log Out / Change )

Google+ photo

You are commenting using your Google+ account. Log Out / Change )

Connecting to %s