Clock Strikes – One Ok Rock (Bass tab)

Difficulty (1-5): 2
# Strings: 4
Tuning: Eb Ab Db Gb (Half Step Down)
Reference: http://www.youtube.com/watch?v=DFIr6nG2NKs

0:22
Gb|--------------------------------------------------------------------|
Db|--------------------------------------------------------------------|
Ab|--------------------------------------------------------------------|
Eb|--/99-9-999-99-999-99-9-999-99-999\55-5-555-55-555/77-7-777-77-777--|

Gb|---------------------------|
Db|---------------------------|
Ab|---------------------------|
Eb|--9-(x32)-5-(x16)-7-(x16)--|

Gb|--------------------------------------------------------------------|
Db|--------------------------------------------------------------------|
Ab|--------------------------------------------------------------------|
Eb|--00-000-000-000-077-777-777-777-799-999-999-999-955-555-577-777-7--|

Gb|--------------------------------------------------------------------|
Db|--------------------------------------------------------------------|
Ab|--------------------------------------------------------------------|
Eb|--00-000-000-000-077-777-777-777-799-999-999-999-955-555-577-777-7--|

1:07
Gb|---------------------------------------------------------------|
Db|---------------------------------------------------------------|
Ab|---------------------------------------------------------------|
Eb|--99---99---55---77--/9-(x32)-5-(x16)-7-(x16)--5-5-5---7-7-7\--|

Gb|--------------------------------------------------------------------|
Db|--------------------------------------------------------------------|
Ab|--------------------------------------------------------------------|
Eb|--00-000-000-000-077-777-777-777-799-999-999-999-955-555-577-777-7--|

Gb|-----------------------------------------------------------------------|
Db|-----------------------------------------------------------------------|
Ab|-----------------------------------------------------------------------|
Eb|--00-000-000-000-077-777-777-777-799-999-999-999-955-555-577-777-70~ --|

2:12
Gb|--14--13--11--9----14--13--11--9---|
Db|-----------------------------------|
Ab|--16--14--12--11---16--14--12--11--|
Eb|-----------------------------------|

Gb|--14--13--11--9----14--13--11--9---|
Db|-----------------------------------|
Ab|--16--14--12--11---16--14--12--11--|
Eb|-----------------------------------|

Gb|--14--13--11--9----14--13---------------------------|
Db|----------------------------------------------------|
Ab|--16--14--12--11---16--14---------------------------|
Eb|---------------------------77-7-777-7-7777-7-(x15)--|

2:45
Gb|--------------------------------------------------------------------|
Db|--------------------------------------------------------------------|
Ab|--------------------------------------------------------------------|
Eb|--00-000-000-000-077-777-777-777-799-999-999-999-955-555-577-777-7--|

Gb|--------------------------------------------------------------------|
Db|--------------------------------------------------------------------|
Ab|--------------------------------------------------------------------|
Eb|--00-000-000-000-077-777-777-777-799-999-999-999-955-555-577-777-7--|

Gb|--------------------------------------------------------------------|
Db|--------------------------------------------------------------------|
Ab|--------------------------------------------------------------------|
Eb|--00-000-000-000-077-777-777-777-799-999-999-999-955-555-577-777-7--|

Gb|-----------------------------------------------------------------------|
Db|-----------------------------------------------------------------------|
Ab|-----------------------------------------------------------------------|
Eb|--00-000-000-000-077-777-777-777-799-999-999-999-955-555-577-777-70~ --|
Advertisements

Leave a Reply

Fill in your details below or click an icon to log in:

WordPress.com Logo

You are commenting using your WordPress.com account. Log Out / Change )

Twitter picture

You are commenting using your Twitter account. Log Out / Change )

Facebook photo

You are commenting using your Facebook account. Log Out / Change )

Google+ photo

You are commenting using your Google+ account. Log Out / Change )

Connecting to %s