True – Exist Trace (Bass tab)

Difficulty (1-5): 4
# Strings: 5
Tuning: BEADG (Standard)
Reference: http://www.youtube.com/watch?v=Ytm30nq_Ajs

0:01
G|--------------------------|
D|--------------------------|
A|--------------------------|
E|--------------------------|
B|--00-0~ ----0-0-0-0-0-00--|

G|---------------------------------------------|
D|---------------------------------------------|
A|---------------------------------------------|
E|------8p78p7--8p78p7------8p78p7--8p78p7-----|
B|--00-0------00------000-00------00------000--|

G|--------------------------------------------|
D|--------------------------------------------|
A|--------------------------------------------|
E|----8p78p7--8p78p7------8p78p7---------5/7--|
B|--00------00------000-00------00-5h76p5-----|

G|-------------------------------------------|
D|-------------------------------------------|
A|-------------------------------------------|
E|----8p78p7--8p78p7------8p78p7--8p78p7-----|
B|--00------00------000-00------00------000--|

G|--------------------------------------------|
D|--------------------------------------------|
A|--------------------------------------------|
E|----8p78p7--8p78p7------8p78p7---------5/7--|
B|--00------00------000-00------00-5h76p5-----|

0:28
G|---------------------------------------------------------------|
D|---------------------------------------------------------------|
A|---------------------------------------------------------------|
E|--------------------------------------------5h75h75-5/887-5/7--|
B|--000-0-(x11)--000-0-(x11)--333-3-(x11)--55--------------------|

G|---------------------------------------------------------------|
D|---------------------------------------------------------------|
A|---------------------------------------------------------------|
E|--------------------------------------------5h75h75-5/887-5/7--|
B|--000-0-(x11)--000-0-(x11)--333-3-(x11)--55--------------------|

G|-------------------------------------------|
D|-------------------------------------------|
A|-------------------------------------------|
E|----8p78p7--8p78p7------8p78p7--8p78p7-----|
B|--00------00------000-00------00------000--|

G|--------------------------------------------|
D|--------------------------------------------|
A|--------------------------------------------|
E|----8p78p7--8p78p7------8p78p7---------5/7--|
B|--00------00------000-00------00-5h76p5-----|

G|---------------------------------------------------------------|
D|---------------------------------------------------------------|
A|---------------------------------------------------------------|
E|--------------------------------------------5h75h75-5/887-5/7--|
B|--000-0-(x11)--000-0-(x11)--333-3-(x11)--55--------------------|

G|---------------------------------------------------------------|
D|---------------------------------------------------------------|
A|---------------------------------------------------------------|
E|--------------------------------------------5h75h75-5/887-5/7--|
B|--000-0-(x11)--000-0-(x11)--333-3-(x11)--55--------------------|

1:09
G|----------------------------------------------------------------------------|
D|----------------------------------------------------------------------------|
A|---------------------12-----------------------------------------------------|
E|--/8-7---/8-7--10-12----12--101010-1010-1010-10-10--121212-1212-1212-12-12--|
B|----------------------------------------------------------------------------|

G|--------------------------------------------------------------------|
D|--------------------------------------------------------------------|
A|---------------------12---------------------------------------------|
E|--/8-7---/8-7--10-12----12--101010-1010-1010-10-10--1212-12121212\--|
B|--------------------------------------------------------------------|

G|------------------------------------------------|
D|------------------------------------------------|
A|-----------------------10-10-1010--12-12-12-12--|
E|--7-7-77--10-10-10-10---------------------------|
B|------------------------------------------------|

G|--------------------------------------------------|
D|----------------------------------12/14-12-11-----|
A|-----------------------10-10-9-10-------------12--|
E|--7-7-77--10-10-12-14-----------------------------|
B|--------------------------------------------------|

G|------------------------------------------------|
D|------------------------------------------------|
A|-----------------------10-10-1010--12-12-12-12--|
E|--7-7-77--10-10-10-10---------------------------|
B|------------------------------------------------|

G|---------------------------------------|
D|---------------------------------------|
A|-----------------------10-10-9-10------|
E|--7-7-77--10-10-12-14------------------|
B|----------------------------------10\--|

G|-------------------------------------------|
D|-------------------------------------------|
A|-------------------------------------------|
E|----8p78p7--8p78p7------8p78p7--8p78p7-----|
B|--00------00------000-00------00------000--|

G|--------------------------------------------|
D|--------------------------------------------|
A|--------------------------------------------|
E|----8p78p7--8p78p7------8p78p7---------5/7--|
B|--00------00------000-00------00-5h76p5-----|

1:51
G|---------------------------------------------------------------|
D|---------------------------------------------------------------|
A|---------------------------------------------------------------|
E|--------------------------------------------5h75h75-5/887-5/7--|
B|--000-0-(x11)--000-0-(x11)--333-3-(x11)--55--------------------|

G|---------------------------------------------------------------|
D|---------------------------------------------------------------|
A|---------------------------------------------------------------|
E|--------------------------------------------5h75h75-5/887-5/7--|
B|--000-0-(x11)--000-0-(x11)--333-3-(x11)--55--------------------|

G|----------------------------------------------------------------------------|
D|----------------------------------------------------------------------------|
A|---------------------12-----------------------------------------------------|
E|--/8-7---/8-7--10-12----12--101010-1010-1010-10-10--121212-1212-1212-12-12--|
B|----------------------------------------------------------------------------|

G|--------------------------------------------------------------------|
D|--------------------------------------------------------------------|
A|---------------------12---------------------------------------------|
E|--/8-7---/8-7--10-12----12--101010-1010-1010-10-10--1212-12121212\--|
B|--------------------------------------------------------------------|

G|------------------------------------------------|
D|------------------------------------------------|
A|-----------------------10-10-1010--12-12-12-12--|
E|--7-7-77--10-10-10-10---------------------------|
B|------------------------------------------------|

G|--------------------------------------------------|
D|----------------------------------12/14-12-11-----|
A|-----------------------10-10-9-10-------------12--|
E|--7-7-77--10-10-12-14-----------------------------|
B|--------------------------------------------------|

G|------------------------------------------------|
D|------------------------------------------------|
A|-----------------------10-10-1010--12-12-12-12--|
E|--7-7-77--10-10-10-10---------------------------|
B|------------------------------------------------|

G|---------------------------------------|
D|---------------------------------------|
A|-----------------------10-10-9-10------|
E|--7-7-77--10-10-12-14------------------|
B|----------------------------------10\--|

2:40
G|------------------------------------------------|
D|------------------------------------------------|
A|------------------------------------------------|
E|------------------------------------------------|
B|--012-012-012-012-01-----012-012-012-012-01-9\--|

G|------------------------------------------------------|
D|------------------------------------------------------|
A|------------------------------------------------------|
E|------------------------------------3-3-333--555-555--|
B|--012-012-012-012-01-----012-012-01-------------------|

G|------------------------------------------------|
D|------------------------------------------------|
A|-----------------------10-10-1010--12-12-12-12--|
E|--7-7-77--10-10-10-10---------------------------|
B|------------------------------------------------|

G|------------------------------------------------|
D|------------------------------------------------|
A|-----------------------10-10-1010--12-12-12-12--|
E|--7-7-77--10-10-10-10---------------------------|
B|------------------------------------------------|

G|------------------------------------------------|
D|------------------------------------------------|
A|-----------------------10-10-1010--12-12-12-12--|
E|--7-7-77--10-10-10-10---------------------------|
B|------------------------------------------------|

G|------------------------------------------------|
D|------------------------------------------------|
A|-----------------------10-10-1010--12-12-12-12--|
E|--7-7-77--10-10-10-10---------------------------|
B|------------------------------------------------|

G|------------------------------------------------------|
D|------------------------------------------------------|
A|--10-10-10-1010-1010-10-101010-10-10-1010-1010-10-10--|
E|------------------------------------------------------|
B|------------------------------------------------------|

G|------11---9---11-12-11------11---9---7----|
D|--9-9----9---9-----------9-9----9---9---9--|
A|-------------------------------------------|
E|-------------------------------------------|
B|-------------------------------------------|

G|-------------------------------------------12/14-12-11-----|
D|----------------------------------------12-------------12--|
A|--10-10-10-1010-1010-10-10--10-10-10/14--------------------|
E|-----------------------------------------------------------|
B|-----------------------------------------------------------|

G|-----------------------------------------------------|
D|-----------------------------------------------------|
A|--9-9-9-99-99-9-9--9-9-7/97-7/97-7/9-----------------|
E|-------------------------------------9---------------|
B|---------------------------------------7--7777-7777--|

3:32
G|------------------------------------------------|
D|------------------------------------------------|
A|-----------------------10-10-1010--12-12-12-12--|
E|--7-7-77--10-10-10-10---------------------------|
B|------------------------------------------------|

G|--------------------------------------------------|
D|----------------------------------12/14-12-11-----|
A|-----------------------10-10-9-10-------------12--|
E|--7-7-77--10-10-12-14-----------------------------|
B|--------------------------------------------------|

G|------------------------------------------------|
D|------------------------------------------------|
A|-----------------------10-10-1010--12-12-12-12--|
E|--7-7-77--10-10-10-10---------------------------|
B|------------------------------------------------|

G|----------------------------------------------|
D|----------------------------------------------|
A|-----------------------10-10-9-10--12---------|
E|--7-7-77--10-10-12-14-----------------12------|
B|-----------------------------------------10\--|

G|------------------------------------------------|
D|------------------------------------------------|
A|-----------------------10-10-1010--12-12-12-12--|
E|--7-7-77--10-10-10-10---------------------------|
B|------------------------------------------------|

G|--------------------------------------------------|
D|----------------------------------12/14-12-11-----|
A|-----------------------10-10-9-10-------------12--|
E|--7-7-77--10-10-12-14-----------------------------|
B|--------------------------------------------------|

G|--------------------------------------|
D|--------------------------------------|
A|------97--------12----10-10-----------|
E|--7-7-----10-10---12-------10-3-5-5---|
B|-----------------------------------5--|

G|----------------------------------------------|
D|----------------------------------------------|
A|-----------------------10-10-9-10--12---------|
E|--7-7-77--10-10-12-14-----------------12------|
B|-----------------------------------------10\--|

4:05
G|-------------------------------------------|
D|-------------------------------------------|
A|-------------------------------------------|
E|----8p78p7--8p78p7------8p78p7--8p78p7-----|
B|--00------00------000-00------00------000--|

G|--------------------------------------------|
D|--------------------------------------------|
A|--------------------------------------------|
E|----8p78p7--8p78p7------8p78p7---------5/7--|
B|--00------00------000-00------00-5h76p5-----|

G|-------------------------------------------|
D|-------------------------------------------|
A|-------------------------------------------|
E|----8p78p7--8p78p7------8p78p7--8p78p7-----|
B|--00------00------000-00------00------000--|

G|--------------------------------------------|
D|--------------------------------------------|
A|--------------------------------------------|
E|----8p78p7--8p78p7------8p78p7---------5/7--|
B|--00------00------000-00------00-5h76p5-----|

G|---------------------------------------------|
D|---------------------------------------------|
A|--------------------3------------------------|
E|---------------------------------------------|
B|--012-012-012-012-01-----012-012-012-012-00--|
Advertisements

Leave a Reply

Fill in your details below or click an icon to log in:

WordPress.com Logo

You are commenting using your WordPress.com account. Log Out / Change )

Twitter picture

You are commenting using your Twitter account. Log Out / Change )

Facebook photo

You are commenting using your Facebook account. Log Out / Change )

Google+ photo

You are commenting using your Google+ account. Log Out / Change )

Connecting to %s