Tell Me Goodbye – Big Bang (Bass tab)

Difficulty (1-5): 2
# Strings: 4
Tuning: EADG (Standard)
Reference: http://www.youtube.com/watch?v=BI7TcCZVG9c

If playing the optional "solo" it may be a little harder.

0:13
G|--------------------------------------|
D|--/10~ --------------/10~ ------------|
A|---------8--10-11-----------8--10-11--|
E|--------------------------------------|

G|--------------------------------------|
D|--/10~ --------------/10~ ------------|
A|---------8--10-11-----------8--10-11--|
E|--------------------------------------|

G|---------------------------------------------------------------------|
D|--/10~ --10h12-12/13--12h13-13/15-13-12-8--/10--10h12-10-8-----------|
A|-----------------------------------------------------------8--10-11--|
E|---------------------------------------------------------------------|

G|-------------------------------------13/15-13---------------------------|
D|--/10~ --10h12-12/13--12h13-13/15-13-----------10--10h12-10-8-----------|
A|--------------------------------------------------------------8--10-11--|
E|------------------------------------------------------------------------|

G|----------------------------------|
D|------------------------------/8--|
A|--9~ --8h9-9/11--9h11-9---8-------|
E|----------------------------------|

1:14
G|-------------------------------------|
D|--/10--8--6---------/10--8--6--------|
A|-------------8-10--------------8-10--|
E|-------------------------------------|

G|-------------------------------------|
D|--/10--8--6---------/10--8--6--------|
A|-------------8-10--------------8-10--|
E|-------------------------------------|

G|---------------------------------------------------------------------|
D|--/10~ --10h12-12/13--12h13-13/15-13-12-8--/10--10h12-10-8-----------|
A|-----------------------------------------------------------8--10-11--|
E|---------------------------------------------------------------------|

G|-------------------------------------13/15-13---------------------------|
D|--/10~ --10h12-12/13--12h13-13/15-13-----------10--10h12-10-8-----------|
A|--------------------------------------------------------------8--10-11--|
E|------------------------------------------------------------------------|

G|----------------------------------|
D|------------------------------/8--|
A|--9~ --8h9-9/11--9h11-9---8-------|
E|----------------------------------|

G|-------------------------------------|
D|--/10--8--6---------/10--8--6--------|
A|-------------8-10--------------8-10--|
E|-------------------------------------|

G|-------------------------------------|
D|--/10--8--6---------/10--8--6--------|
A|-------------8-10--------------8-10--|
E|-------------------------------------|

2:37
G|-------------8/10--8h10-10/12-10--10/13-12--11/13-12-13--|
D|--/10~ --8h10--------------------------------------------|
A|---------------------------------------------------------|
E|---------------------------------------------------------|

G|--13/15-13-15--15/17-15----------------------8/10-8----------------------|
D|------------------------17-15-13-12--10--8h10-------8/10--8h10-10/12-10--|
A|-------------------------------------------------------------------------|
E|-------------------------------------------------------------------------|

G|-----------------------------------------|
D|--8/10-8-10--10/12-10-12--10-8-----------|
A|-------------------------------10-8-6-5--|
E|-----------------------------------------|

G|----------------------------------------------------|
D|--/10--8h10-10/12--10h12-12/13--12h13-12-10-8-------|
A|----------------------------------------------10-8--|
E|----------------------------------------------------|

G|----------------------------8/10-8------------------------------------|
D|-----------------------8-10---------8/10--8h10-10/12--10h12-12/13-12--|
A|--8/10-8-6-5--5/6-8-10------------------------------------------------|
E|----------------------------------------------------------------------|

G|-----------------------------------------|
D|--10-8---------------------------8-8/10--|
A|-------10-8-6-5--5/6--5h6-6/8-10---------|
E|-----------------------------------------|

3:25
G|-------------------------------------|
D|--/10--8--6---------/10--8--6--------|
A|-------------8-10--------------8-10--|
E|-------------------------------------|

G|---------------------------------------------|
D|--/10--8--6---------/10--8--6---------/10~ --|
A|-------------8-10--------------8-10----------|
E|---------------------------------------------|
Advertisements

Leave a Reply

Fill in your details below or click an icon to log in:

WordPress.com Logo

You are commenting using your WordPress.com account. Log Out / Change )

Twitter picture

You are commenting using your Twitter account. Log Out / Change )

Facebook photo

You are commenting using your Facebook account. Log Out / Change )

Google+ photo

You are commenting using your Google+ account. Log Out / Change )

Connecting to %s