Liar – One Ok Rock (Bass tab)

Difficulty (1-5): 3
# Strings: 5
Tuning: BEADG (Standard)
Reference: https://www.youtube.com/watch?v=jWm-lLITxM4

0:14
G|--------------------------------------------|
D|--4~ --4~ --------------4~ --4~ ------------|
A|------------2~ --4~ --------------2~ --4~ --|
E|--------------------------------------------|
B|--------------------------------------------|

G|----------------------------------------------|
D|----------------------------------------------|
A|----------------------------------------------|
E|----------------------------------------------|
B|--77-7-7-7\--77-7-7-7\--00-0-0-0~ -22-2-2-2\--|

G|----------------------------------------------------|
D|----------------------------------------------------|
A|----------------------------------------------------|
E|----------------------------------------------------|
B|--77-7-7-7\--77-7-7-7\--00-0-0-0~ -22-2-2-2--2/15\--|

G|-----------------------------------------------|
D|---------7-------------------------------------|
A|--5--3/5--5-4~ --------------------------------|
E|-----------------------------------------------|
B|----------------2/15\--77--77-55---77--77-55\--|

G|-------------------------|
D|-----------7-------------|
A|--3/5--3/5--5-4~ --------|
E|-------------------------|
B|------------------2/15\--|

1:05
G|--------------------------------------|
D|--------------------------------------|
A|--------------------------------------|
E|--22222-22-222-45---------------/9-9--|
B|-------------------55555-55-555-------|

G|----------------------------------------------------|
D|----------------------------------------------------|
A|----------------------------------------------------|
E|--1010101010-1010-101010-1010-1010--9-(x15)--2/15\--|
B|----------------------------------------------------|

G|--------------------------------------|
D|--------------------------------------|
A|--------------------------------------|
E|--22222-22-222-45---------------/9-9--|
B|-------------------55555-55-555-------|

G|----------------------------------------------------|
D|----------------------------------------------------|
A|----------------------------------------------------|
E|--1010101010-1010-101010-1010-1010--9-(x15)--2/15\--|
B|----------------------------------------------------|

G|-----------------------------------------------------------------|
D|-----------------------------------------------------------------|
A|-----------------------------------------------------------------|
E|-----------------------------------------------------------------|
B|--77-----77-----00-----22-----77--77-77---77-00---00-22---2/15\--|

1:42
G|-----------------------------------------------|
D|---------7-------------------------------------|
A|--5--3/5--5-4~ --------------------------------|
E|-----------------------------------------------|
B|----------------2/15\--77--77-55---77--77-55\--|

G|-------------------------|
D|-----------7-------------|
A|--3/5--3/5--5-4~ --------|
E|-------------------------|
B|------------------2/15\--|

G|--------------------------------------|
D|--------------------------------------|
A|--------------------------------------|
E|--22222-22-222-45---------------/9-9--|
B|-------------------55555-55-555-------|

G|----------------------------------------------------|
D|----------------------------------------------------|
A|----------------------------------------------------|
E|--1010101010-1010-101010-1010-1010--9-(x15)--2/15\--|
B|----------------------------------------------------|

G|--------------------------------------|
D|--------------------------------------|
A|--------------------------------------|
E|--22222-22-222-45---------------/9-9--|
B|-------------------55555-55-555-------|

G|----------------------------------------------------------|
D|----------------------------------------------------------|
A|----------------------------------------------------------|
E|--1010101010-1010-101010-1010-1010--9-(x15)--2/13\--------|
B|---------------------------------------------------6/17\--|

2:24
G|-------------------------------------------------|
D|-----11-12\------------------11-12\--------------|
A|--/9--------9/11-12-11\---/9--------9/11-12-11\--|
E|-------------------------------------------------|
B|-------------------------------------------------|

G|-------------------------------------------------|
D|-----11-12\------------------11-12\--------------|
A|--/9--------9/11-12-11\---/9--------9/11-12-11\--|
E|-------------------------------------------------|
B|-------------------------------------------------|

G|----------------------------------------------|
D|----------------------------------------------|
A|----------------------------------------------|
E|----------------------------------------------|
B|--77-5-5--3--5--3-2-2----77-5-5--3--5--3-2-2--|

G|---------------------------------------|
D|---------------------------------------|
A|------------------------7-(x11)--------|
E|--------------------------------2/15\--|
B|--77-5-5--3--5--3-2-2------------------|

G|--------------------------------------|
D|--------------------------------------|
A|--------------------------------------|
E|--22222-22-222-45---------------/9-9--|
B|-------------------55555-55-555-------|

G|----------------------------------------------------|
D|----------------------------------------------------|
A|----------------------------------------------------|
E|--1010101010-1010-101010-1010-1010--9-(x15)--2/15\--|
B|----------------------------------------------------|

G|--------------------------------------|
D|--------------------------------------|
A|--------------------------------------|
E|--22222-22-222-45---------------/9-9--|
B|-------------------55555-55-555-------|

G|----------------------------------------------------|
D|----------------------------------------------------|
A|----------------------------------------------------|
E|--1010101010-1010-101010-1010-1010--9-(x15)--2/15\--|
B|----------------------------------------------------|

3:01
G|---------------------------------------|
D|---------------------------------------|
A|---------------------------------------|
E|--------------------10-(x16)--9-(x16)--|
B|--7-(x16)--5-(x16)---------------------|

G|--------------------------------------------------|
D|--------------------------------------------------|
A|--------------------------------------------------|
E|--------------------10-(x16)--9-9---9-9-9-9-------|
B|--7-(x16)--5-(x16)---------------------------7~ --|
Advertisements

Leave a Reply

Fill in your details below or click an icon to log in:

WordPress.com Logo

You are commenting using your WordPress.com account. Log Out / Change )

Twitter picture

You are commenting using your Twitter account. Log Out / Change )

Facebook photo

You are commenting using your Facebook account. Log Out / Change )

Google+ photo

You are commenting using your Google+ account. Log Out / Change )

Connecting to %s