Jibun Rock – One Ok Rock (Bass tab)

Difficulty (1-5): 3
# Strings: 4
Tuning: DADG (Drop D)
Reference: https://www.youtube.com/watch?v=c2OefYqXCLk

0:01  
  SPSP 
G|---5-5----------------------------------------------------------|
D|----------------------------------------------------------------|
A|--3-3--------33--------------------------33---------------------|
D|-------3-55------1-(x8)-3-(x4)-003---55------1-(x8)-3-(x4)-0-3--|

G|------------------------------------------------------------|
D|------------------------------------------------------------|
A|---------3-(x8)-----------------------3-(x8)----------------|
D|--5-(x8)--------3-(x8)-0-(x8)--5-(x8)--------3-(x8)-0-(x5)--|

G|------------------------------------------------------------|
D|------------------------------------------------------------|
A|--------33---------------------------33---------------------|
D|--3-55------1-(x8)-3-(x4)-0033---55------1-(x8)-3-(x4)-0-3--|

G|------------------------------------------------------------------|
D|------------------------------------------------------------------|
A|---------3-(x8)-----------------------------3-(x8)----------------|
D|--5-(x8)--------1-(x8)-3-(x4)-0033---5-(x8)--------1-(x8)-0-(x8)--|

G|--------------------------------------------|
D|-------------------/7777--------------------|
A|---------------000-------------------/5555--|
D|--4/17--5-(x8)------------8-(x8)-000--------|

G|------------------------------------------------------|
D|------------------------------------------------------|
A|------------------------------------------------------|
D|--1-(x8)-0-(x8)-4-(x8)-5-(x8)---1-(x8)-3-(x8)-5-(x8)--|

G|--------------------------------|
D|--------------------------------|
A|--------------------------------|
D|--0-(x8)-1-(x16)-3-(x9)-0-(x6)--|
      
1:13                                  SPSP
G|-------------------------------------5-5-------------------------|
D|-----------------------------------------------------------------|
A|--------33--------------------------3-3---33---------------------|
D|--3-55------1-(x8)-3-(x4)-003---55------------1-(x8)-3-(x4)-0-3--|

G|------------------------------|
D|------------------------------|
A|------33----------------------|
D|--55------1-(x8)-3-(x4)-0033--|

G|------------------------------------------|
D|------------------------------------------|
A|-------------------33---------------------|
D|--55--5/15\-5/15\------1-(x8)-3-(x4)-0-3--|

G|------------------------------------------------------------------|
D|------------------------------------------------------------------|
A|---------3-(x8)-----------------------------3-(x8)----------------|
D|--5-(x8)--------1-(x8)-3-(x4)-0033---5-(x8)--------1-(x8)-0-(x8)--|

G|--------------------------------------------|
D|-------------------/7777--------------------|
A|---------------000-------------------/5555--|
D|--4/17--5-(x8)------------8-(x8)-000--------|

G|------------------------------------------------------|
D|------------------------------------------------------|
A|------------------------------------------------------|
D|--1-(x8)-0-(x8)-4-(x8)-5-(x8)---1-(x8)-3-(x8)-5-(x8)--|

G|--------------------------------|
D|--------------------------------|
A|--------------------------------|
D|--0-(x8)-1-(x16)-3-(x9)-0-(x6)--|

2:12
G|---------------------------------------------|
D|---------------------------------------------|
A|-------3----------3----------3---------------|
D|--35-35------35-35------35-35------3-01-315--|

G|-----------------------------------------------------|
D|--0-(x16)-5-(x16)--0-(x16)-5-(x16)--0-(x16)-5-(x16)--|
A|-----------------------------------------------------|
D|-----------------------------------------------------|

                                 H
G|-------------------------------5--|
D|-------------------------------5--|
A|--8-(x8)-6-(x8)-5-(x16)-5~ -------|
D|----------------------------------|

2:53
G|--------------------------------------|
D|-------------/7777--------------------|
A|---------000-------------------/5555--|
D|--5-(x8)------------8-(x8)-000--------|

G|------------------------------------------------------|
D|------------------------------------------------------|
A|------------------------------------------------------|
D|--1-(x8)-0-(x8)-4-(x8)-5-(x8)---1-(x8)-3-(x8)-5-(x8)--|

G|--------------------------------|
D|--------------------------------|
A|--------------------------------|
D|--0-(x8)-1-(x16)-3-(x8)-0-(x6)--|

G|---------------------------------------------------------|
D|---------------------------------------------------------|
A|--------33--------------------------33-------------------|
D|--3-55------1-(x8)-3-(x4)-003---55------1-(x8)-3-(x4)-0--|

G|--------------------------|
D|--------------------------|
A|-------3----------3/15~ --|
D|--35-35------35-35--------|
Advertisements

Leave a Reply

Fill in your details below or click an icon to log in:

WordPress.com Logo

You are commenting using your WordPress.com account. Log Out / Change )

Twitter picture

You are commenting using your Twitter account. Log Out / Change )

Facebook photo

You are commenting using your Facebook account. Log Out / Change )

Google+ photo

You are commenting using your Google+ account. Log Out / Change )

Connecting to %s