Gone Not Around Any Longer – Sistar19 (Bass tab)

Difficulty (1-5): 2
# Strings: 5
Tuning: BEADG (Standard)
Reference: https://www.youtube.com/watch?v=BtTqGz0nO_Y

0:13
G|-----------------------------------------------| <|
D|-----------------------------------------------|  | Play
A|-----------------------------------------------|  |
E|--1-(x7)-1p0--------4h6-4-(x7)-4p2-------------|  |3 Times
B|-------------2-(x7)----------------4-(x7)-2h4--| <|

G|--------------------------------------|
D|--------------------------------------|
A|--------------------------------------|
E|--1-(x7)-1p0--------4h6-4-(x7)-4p2----|
B|-------------2-(x7)----------------4--|

G|---------------------------------------------------|
D|---------------------------------------------------|
A|---------------------------------------------------|
E|--17\-1-(x7)-1p0--------4h6-4-(x7)-4p2-------------|
B|-----------------2-(x7)----------------4-(x7)-2h4--|

G|-----------------------------------------------|
D|-----------------------------------------------|
A|-----------------------------------------------|
E|--1-(x7)-1p0--------4h6-4-(x7)-4p2-------------|
B|-------------2-(x7)----------------4-(x7)-2h4--|


1:34
---------------------------------------------------------|
                                                         |
G|--6/8-6---6-8-/10-8\-5-5/8---6h88-8/10--8h10-10/12--|  |
D|----------------------------------------------------|  |O
A|----------------------------------------------------|  |P
E|----------------------------------------------------|  |T
B|----------------------------------------------------|  |I
                                                         |O
G|--10h12-12/13--12h1313-13/15-13\--|                    |N
D|----------------------------------|                    |A
A|----------------------------------|                    |L
E|----------------------------------|                    |
B|----------------------------------|                    |
                                                         |
---------------------------------------------------------|


1:45
G|--------------------------------------|
D|--------------------------------------|
A|--------------------------------------|
E|--1-(x7)-1p0--------4h6-4-(x7)-4p2----|
B|-------------2-(x7)----------------4--|

G|---------------------------------------------------|
D|---------------------------------------------------|
A|---------------------------------------------------|
E|--17\-1-(x7)-1p0--------4h6-4-(x7)-4p2-------------|
B|-----------------2-(x7)----------------4-(x7)-2h4--|

G|-----------------------------------------------|
D|-----------------------------------------------|
A|-----------------------------------------------|
E|--1-(x7)-1p0--------4h6-4-(x7)-4p2-------------|
B|-------------2-(x7)----------------4-(x7)-2h4--|


2:28
----------------------------------------------------------------|
                                                                |
G|--13-10h13-10h13--13/15-13--13-15-15/17--|                    |
D|-----------------------------------------|                    |
A|-----------------------------------------|                    |
E|-----------------------------------------|                    |
B|-----------------------------------------|                    |
                                                                |
G|--1717-15-13-15--15/17-15-13----|                             |
D|----------------------------13--|                             |
A|--------------------------------|                             |
E|--------------------------------|                             |
B|--------------------------------|                             |O
                                                                |P
G|----------10/12-10h12-12/13--12h13-13/15--13h1515-15/17--|    |T
D|--11h1313------------------------------------------------|    |I
A|---------------------------------------------------------|    |O
E|---------------------------------------------------------|    |N
B|---------------------------------------------------------|    |A
                                                                |L
G|--13-10h13-10h13--13/15-13--------------------------------|   |
D|---------------------------13/15-13--13/15-15\--10-10/13--|   |
A|----------------------------------------------------------|   |
E|----------------------------------------------------------|   |
B|----------------------------------------------------------|   |
                                                                |
G|-----------13/15-13--1313-15--15/17-17-18p17-15-------------| |
D|--13h1515----------------------------------------15/17-15\--| |
A|------------------------------------------------------------| |
E|------------------------------------------------------------| |
B|------------------------------------------------------------| |
                                                                |
----------------------------------------------------------------|


2:57
G|-----------------------------------------------| <|
D|-----------------------------------------------|  | Play
A|-----------------------------------------------|  |
E|--1-(x7)-1p0--------4h6-4-(x7)-4p2-------------|  |2 Times
B|-------------2-(x7)----------------4-(x7)-2h4--| <|

Advertisements

Leave a Reply

Fill in your details below or click an icon to log in:

WordPress.com Logo

You are commenting using your WordPress.com account. Log Out / Change )

Twitter picture

You are commenting using your Twitter account. Log Out / Change )

Facebook photo

You are commenting using your Facebook account. Log Out / Change )

Google+ photo

You are commenting using your Google+ account. Log Out / Change )

Connecting to %s