Get Off of My Way – Man With a Mission (Bass tab)

Difficulty (1-5): 3
# Strings: 4
Tuning: EADG (Standard)
Reference: https://www.youtube.com/watch?v=B73zorEAieM

0:18
G|------------------------2-------------------------|
D|----4-2----2----44-2---2-----4-2------------------|
A|-------4-24----------24---------4-20-222-20-2320--|
E|--2-----------2------------2----------------------|

G|------------------------2---------------|
D|----4-2----2----44-2---2-----4-2--------|
A|-------4-24----------24---------4-2002--|
E|--2-----------2------------2------------|

G|------------------------------------------|
D|-----------------------------------2------|
A|----------------------------------4-4p20--|
E|--0h2-0h2-0h2-0h2-0h2-0h2-0h2-0h2---------|

G|--------------------------------------|
D|--------------------------------------|
A|--------------------------------------|
E|--0h2-0h2-0h2-0h2-0h2-0h222-0h2-0h22--|

G|------------------------------------------|
D|-----------------------------------2------|
A|----------------------------------4-4p20--|
E|--0h2-0h2-0h2-0h2-0h2-0h2-0h2-0h2---------|

G|--------------------------------------|
D|--------------------------------------|
A|--------------------------------------|
E|--0h2-0h2-0h2-0h2-0h2-0h222-0h2-0h22--|

0:47
G|------------------------2-------------------------| <|
D|----4-2----2----44-2---2-----4-2------------------|  | Play
A|-------4-24----------24---------4-20-222-20-2320--|  |4 Times
E|--2-----------2------------2----------------------| <|

G|------------------------------------------|
D|-----------------------------------2------|
A|----------------------------------4-4p20--|
E|--0h2-0h2-0h2-0h2-0h2-0h2-0h2-0h2---------|

G|--------------------------------------|
D|--------------------------------------|
A|--------------------------------------|
E|--0h2-0h2-0h2-0h2-0h2-0h222-0h2-0h22--|

G|------------------------------------------|
D|-----------------------------------2------|
A|----------------------------------4-4p20--|
E|--0h2-0h2-0h2-0h2-0h2-0h2-0h2-0h2---------|

G|--------------------------------------|
D|--------------------------------------|
A|--------------------------------------|
E|--0h2-0h2-0h2-0h2-0h2-0h222-0h2-0h22--|

G|------------------------2-------------------------| <|
D|----4-2----2----44-2---2-----4-2------------------|  | Play
A|-------4-24----------24---------4-20-222-20-2320--|  |4 Times
E|--2-----------2------------2----------------------| <|

G|------------------------------------------|
D|-----------------------------------2------|
A|----------------------------------4-4p20--|
E|--0h2-0h2-0h2-0h2-0h2-0h2-0h2-0h2---------|

G|--------------------------------------|
D|--------------------------------------|
A|--------------------------------------|
E|--0h2-0h2-0h2-0h2-0h2-0h222-0h2-0h22--|

G|------------------------------------------|
D|-----------------------------------2------|
A|----------------------------------4-4p20--|
E|--0h2-0h2-0h2-0h2-0h2-0h2-0h2-0h2---------|

G|--------------------------------------|
D|--------------------------------------|
A|--------------------------------------|
E|--0h2-0h2-0h2-0h2-0h2-0h222-0h2-0h22--|

2:12
G|----------------------------------------------------------------------|
D|----------------------------------------------------------------------|
A|--2-2-2-22-22-2-2-----------------------------------------------------|
E|-------------------0-0-0-00-00-0-0--2-2-2-22-22-2-2--5-5-5-55-55-5-5--|

G|------------------------------------------------------------------------|
D|------------------------------------------------------------------------|
A|--2-2-2-22-22-2-2-----------------------/9\------/9\------/9\------/9\--|
E|-------------------0-0-0-00-00-0-0--2-2------2-2------2-2------2-2------|

G|--------------------------------------------------------------------|
D|--------------------------------------------------------------------|
A|--2-2-2-22-22-2-2---------------------------------------------------|
E|-------------------0-0-0-00-00-0-0--2-2-2-22-22-2--5-5-5-55-55-5-5--|

G|---------------------------------------------------|
D|---------------------------------------------------|
A|--2-2-2-22-22-2-2----------------------------------|
E|-------------------0-0-0-00-00-0-0--3-(x13)-0-0-0--|

G|------------------------2-------------------------|
D|----4-2----2----44-2---2-----4-2------------------|
A|-------4-24----------24---------4-20-222-20-2320--|
E|--2-----------2------------2----------------------|

G|------------------------2----------------------|
D|----4-2----2----44-2---2-----4-2---------------|
A|-------4-24----------24---------4-200-2--------|
E|--2-----------2------------2------------5-4-0--|

3:09
G|------------------------------------------|
D|-----------------------------------2------|
A|----------------------------------4-4p20--|
E|--0h2-0h2-0h2-0h2-0h2-0h2-0h2-0h2---------|

G|--------------------------------------|
D|--------------------------------------|
A|--------------------------------------|
E|--0h2-0h2-0h2-0h2-0h2-0h222-0h2-0h22--|

G|------------------------------------------|
D|-----------------------------------2------|
A|----------------------------------4-4p20--|
E|--0h2-0h2-0h2-0h2-0h2-0h2-0h2-0h2---------|

G|--------------------------------------|
D|--------------------------------------|
A|--------------------------------------|
E|--0h2-0h2-0h2-0h2-0h2-0h222-0h2-0h22--|

G|------------------------------------------|
D|-----------------------------------2------|
A|----------------------------------4-4p20--|
E|--0h2-0h2-0h2-0h2-0h2-0h2-0h2-0h2---------|

G|--------------------------------------|
D|--------------------------------------|
A|--------------------------------------|
E|--0h2-0h2-0h2-0h2-0h2-0h222-0h2-0h22--|

G|------------------------------------------|
D|-----------------------------------2------|
A|----------------------------------4-4p20--|
E|--0h2-0h2-0h2-0h2-0h2-0h2-0h2-0h2---------|

G|--------------------------------------|
D|-----------------------------------4--|
A|--------------------------------------|
E|--0h2-0h2-0h2-0h2-0h2-0h222-0h2-0h2---|
Advertisements

Leave a Reply

Fill in your details below or click an icon to log in:

WordPress.com Logo

You are commenting using your WordPress.com account. Log Out / Change )

Twitter picture

You are commenting using your Twitter account. Log Out / Change )

Facebook photo

You are commenting using your Facebook account. Log Out / Change )

Google+ photo

You are commenting using your Google+ account. Log Out / Change )

Connecting to %s