Gambling – High and Mighty Color (Bass tab)

Difficulty (1-5): 3
# Strings: 4
Tuning: EADG (Standard)
Reference: http://www.youtube.com/watch?v=dWcrhc4WUBA

0:07
G|------------------------------------------|
D|------------------------------------------|
A|------------33----------------------------|
E|--55-1-111-----3-333--55-1-111--00-3-333--|

G|------------------------------------------|
D|------------------------------------------|
A|------------33----------------------------|
E|--55-1-111-----3-333--55-1-111--00-3-333--|

    SS PSS P SP  SPSP   SS PSS P SP  SPSP
G|-----------------------------------------|
D|-----7---7--5---7-8------7---7--5---3-2--|
A|-----------------------------------------|
E|--55--55---3---5-6----55--55---3---1-0---|

    SS PSS P SP  SPSP   SS PSS P SP  SPSP
G|-----------------------------------------|
D|-----7---7--5---7-8------7---7--5---3-2--|
A|-----------------------------------------|
E|--55--55---3---5-6----55--55---3---1-0---|

0:32
G|-------------------------------------|
D|-------------------------------------|
A|----------------3(x8)-2-(x4)---------|
E|--1-(x8)-3-(x8)--------------3-(x4)--|

G|---------------------------------|
D|------------------------------2--|
A|----------------3-(x8)-2-(x5)----|
E|--1-(x8)-3-(x8)------------------|

G|---------------------------------|
D|---------------------------------|
A|--------33-----------------------|
E|--55-11----3-333--55-11-00-3333--|

G|----------------------------------|
D|----------------------------------|
A|--------33------------------------|
E|--55-11----3-333--55-11-00-33333--|

G|--------------------------------------------------------------|
D|--------------------------------------------------------------|
A|--------------------------------------------------------------|
E|--5-(x8)-3-(x8)-1-(x8)-3-(x8)--1-1-11-111-111-0-00-3-3333333--|

1:10
G|-------------------------------------------------|
D|-------------------------------------------------|
A|-------------------------------------------------|
E|--55-65-55\---55-65-55\---55-65-55\---55-65-55\--|

G|---------------------------------------------|
D|---------------------------------------------|
A|---------------------------------------------|
E|--33-1-1/44-331-1/441---33-1-1/44-331-1/441--|

G|---------------------------------------------|
D|---------------------------------------------|
A|------------------------------------------2--|
E|--33-1-1/44-331-1/441---33-1-1/44-331-1/44---|

G|---------------------------------|
D|---------------------------------|
A|--------33-----------------------|
E|--55-11----3-333--55-11-00-3333--|

G|----------------------------------|
D|----------------------------------|
A|--------33------------------------|
E|--55-11----3-333--55-11-00-33333--|

G|---------------------------------|
D|---------------------------------|
A|--------33-----------------------|
E|--55-11----3-333--55-11-00-3333--|

G|----------------------------------|
D|----------------------------------|
A|--------33------------------------|
E|--55-11----3-333--55-11-00-33333--|

2:00
G|--------------------------------------------------------------|
D|--------------------------------------------------------------|
A|--------------------------------------------------------------|
E|--5-(x8)-3-(x8)-1-(x8)-3-(x8)--1-1-11-111-111-0-00-3-3333333--|

G|------------------------------------------|
D|------------------------------------------|
A|------------33----------------------------|
E|--55-1-1-1-----3-333--55-1-1-1--00-3-333--|

G|------------------------------------------|
D|------------------------------------------|
A|------------33----------------------------|
E|--55-1-1-1-----3-333--55-1-1-1--00-3-333--|

G|-------------------------------------------------------------|
D|-------------------------------------------------------------|
A|-------------------------------------------------------------|
E|--55-3-3/66-5\---55-3-3/66-5\---55-3-3/66-5\---55-3-3/66-5\--|
Advertisements

Leave a Reply

Fill in your details below or click an icon to log in:

WordPress.com Logo

You are commenting using your WordPress.com account. Log Out / Change )

Twitter picture

You are commenting using your Twitter account. Log Out / Change )

Facebook photo

You are commenting using your Facebook account. Log Out / Change )

Google+ photo

You are commenting using your Google+ account. Log Out / Change )

Connecting to %s