Dream Racer – 4Minute (Bass tab)

Difficulty (1-5): 3
# Strings: 5
Tuning: BEADG (Standard)
Reference: http://www.youtube.com/watch?v=2mpJY_LoeXY

0:08
G|---------------------------------|
D|---------------------------------|
A|--6\---x44-6\---x44-6\---x44-6\--|
E|---------------------------------|
B|---------------------------------|

G|------------------------------------------------|
D|------------------------------------------------|
A|------6-665-44--------------6-665-44------------|
E|--------------6-64-22-24------------6-64-22-24--|
B|--0/44------------------2/44--------------------|

G|--------------------------------------------------------|
D|--------------------------------------------------------|
A|------6-665-44--------------6-665-44--------------------|
E|--------------6-64-22-24------------6-64-22-24--06-96\--|
B|--2/44------------------2/44----------------------------|

G|----------------------------|
D|----------------------------|
A|----------------------------|
E|--69-69\---69-69\---69-69\--|
B|----------------------------|

0:45
G|---------------------------------------|
D|---------------------------------------|
A|----------44--------------44-----------|
E|--15\-2-2---6-667-15\-2-2---6-667-15\--|
B|---------------------------------------|

G|-----------------------------------|
D|-----------------------------------|
A|--6-6-------------6-6--------------|
E|------667-779-15\-----667-779-15\--|
B|-----------------------------------|

    S S S  PSP S   P SSP  S   P  P S
G|--------------------------------------|
D|---------9-9-----11--11-----13-13-----|
A|--------------------------------------|
E|--4-6-4/7-7--7/9---99---9/11-----11\--|
B|--------------------------------------|

    S S S  PSP S   P SSP  S   P P
G|------------------------------11\--|
D|---------9-9-----11--11-----13-----|
A|-----------------------------------|
E|--4-6-4/7-7--7/9---99---9/11-------|
B|-----------------------------------|

    S S S  PSP S   P SSP  S   P  P S
G|--------------------------------------|
D|---------9-9-----11--11-----13-13-----|
A|--------------------------------------|
E|--4-6-4/7-7--7/9---99---9/11-----11\--|
B|--------------------------------------|

    S S S  PSP S   P SSP
G|----------------------------------|
D|---------9-9-----11--11-----------|
A|----------------------------------|
E|--4-6-4/7-7--7/9---99---10-(x5)\--|
B|----------------------------------|

G|---------------------------------|
D|---------------------------------|
A|--6\---x44-6\---x44-6\---x44-6\--|
E|---------------------------------|
B|---------------------------------|

1:31
G|---------------------------------------------|
D|---------------------------------------------|
A|---6-665-44--------------6-665-44------------|
E|-----------6-64-22-24------------6-64-22-24--|
B|--4------------------2/44--------------------|

G|------------------------------------------|
D|------------------------------------------|
A|------6-665-44--------------6-665-44------|
E|--------------6-64-22-24------------6-64--|
B|--2/44------------------2/44--------------|

G|---------------------------------------|
D|---------------------------------------|
A|----------44--------------44-----------|
E|--15\-2-2---6-667-15\-2-2---6-667-15\--|
B|---------------------------------------|

G|-----------------------------------|
D|-----------------------------------|
A|--6-6-------------6-6--------------|
E|------667-779-15\-----667-779-15\--|
B|-----------------------------------|

    S S S  PSP S   P SSP  S   P  P S
G|--------------------------------------|
D|---------9-9-----11--11-----13-13-----|
A|--------------------------------------|
E|--4-6-4/7-7--7/9---99---9/11-----11\--|
B|--------------------------------------|

    S S S  PSP S   P SSP  S   P P
G|------------------------------11\--|
D|---------9-9-----11--11-----13-----|
A|-----------------------------------|
E|--4-6-4/7-7--7/9---99---9/11-------|
B|-----------------------------------|

    S S S  PSP S   P SSP  S   P  P S
G|--------------------------------------|
D|---------9-9-----11--11-----13-13-----|
A|--------------------------------------|
E|--4-6-4/7-7--7/9---99---9/11-----11\--|
B|--------------------------------------|

    S S S  PSP S   P SSP
G|----------------------------------|
D|---------9-9-----11--11-----------|
A|----------------------------------|
E|--4-6-4/7-7--7/9---99---10-(x5)\--|
B|----------------------------------|

2:40
G|---------------------------------------|
D|---------------------------------------|
A|----------44--------------44-----------|
E|--15\-2-2---6-667-15\-2-2---6-667-15\--|
B|---------------------------------------|

G|-----------------------------------|
D|-----------------------------------|
A|--6-6-------------6-6--------------|
E|------667-779-15\-----667-779-15\--|
B|-----------------------------------|

G|-----------------------------------|
D|-----------------------------------|
A|--6-6-------------6-6--------------|
E|------667-779-15\-----667-779-15\--|
B|-----------------------------------|

G|-----------------------------------|
D|-----------------------------------|
A|--6-6-------------6-6--------------|
E|------667-779-15\-----667-779-15\--|
B|-----------------------------------|

G|---------------------------------|
D|---------------------------------|
A|--6\---x44-6\---x44-6\---x44-6\--|
E|---------------------------------|
B|---------------------------------|
Advertisements

Leave a Reply

Fill in your details below or click an icon to log in:

WordPress.com Logo

You are commenting using your WordPress.com account. Log Out / Change )

Twitter picture

You are commenting using your Twitter account. Log Out / Change )

Facebook photo

You are commenting using your Facebook account. Log Out / Change )

Google+ photo

You are commenting using your Google+ account. Log Out / Change )

Connecting to %s