Deeper Deeper – One Ok Rock (Bass tab)

Difficulty (1-5): 2
# Strings: 4
Tuning: EADG (Standard)
Reference: http://www.youtube.com/watch?v=8cJfnkcr8yk

0:00
G|---------------------------------------------| <|
D|---------------------------------------------|  | Play
A|---------------------------------------------|  |7 Times
E|--00-70-30--353-353-3---00-70-30--353-353-3--| <|

G|------------------------------------------|
D|------------------------------------------|
A|------------------------------------------|
E|--00-70-30--353-353-3---00-70-30--0-(x9)--|

0:48
G|----------------------------------------| <|
D|----------------------------------------|  | Play
A|----------------------------------------|  |4 Times
E|--8-(x8)-7-(x4)-10-(x4)--0-(x8)-3-(x8)--| <|

G|---------------------------------------------|
D|---------------------------------------------|
A|---------------------------------------------|
E|--00-70-30--353-353-3---00-70-30--353-353-3--|

*pause*

G|-----------------------|
D|-----------------------|
A|-----------------------|
E|--00-70-30--353-353-3--|

*pause*

G|---------------------------------------------| <|
D|---------------------------------------------|  | Play
A|---------------------------------------------|  |2 Times
E|--00-70-30--353-353-3---00-70-30--353-353-3--| <|

1:43
G|----------------------------------------| <|
D|----------------------------------------|  | Play
A|----------------------------------------|  |4 Times
E|--8-(x8)-7-(x4)-10-(x4)--0-(x8)-3-(x8)--| <|

G|-------------------------------------| <|
D|-------------------------------------|  | Play
A|-------------------------57----57-7--|  |3 Times
E|--5-55-555--5-55-555--035---035--5---| <|

G|---------------------------------------|
D|---------------------------------------|
A|---------------------------------------|
E|--5-55-555--5-55-555--7-77-777-765-03--|

G|-----------------------------------------| <|
D|-----------------------------------------|  | Play
A|------57--------57--------57--------57---|  |4 Times
E|--035---3---035---3---035---3---035---3--| <|

3:04
G|-----------------|
D|-----------------|
A|-----------------|
E|--0-(x8)-3-(x8)--|

G|----------------------------------------| <|
D|----------------------------------------|  | Play
A|----------------------------------------|  |3 Times
E|--8-(x8)-7-(x4)-10-(x4)--0-(x8)-3-(x8)--| <|

G|---------------------------------------------|
D|---------------------------------------------|
A|---------------------------------------------|
E|--00-70-30--353-353-3---00-70-30--353-353-3--|
Advertisements

Leave a Reply

Fill in your details below or click an icon to log in:

WordPress.com Logo

You are commenting using your WordPress.com account. Log Out / Change )

Twitter picture

You are commenting using your Twitter account. Log Out / Change )

Facebook photo

You are commenting using your Facebook account. Log Out / Change )

Google+ photo

You are commenting using your Google+ account. Log Out / Change )

Connecting to %s