Bye Bye Bye! – C-ute (Bass tab)

Difficulty (1-5): 4
# Strings: 4
Tuning: EADG (Standard)
Reference: N/A

0:18
    S S S   S S   S SPS S S   S S S   S S  S SPS S S S
G|------------------------------------------------------|
D|-------------------4------------------------4---------|
A|--4-4-4h6-7-4---------------4-4-4h6-7-4---------------|
E|----------------2-2-2-6-2----------------2-2-2-2-2-2--|

    S P   P S PS  SP  P   SP SP
G|----4h6-6----------------------|
D|------------6----6h76h7--4--6--|
A|--4----------------------------|
E|----------4--4--5-------2--4---|

    S P   P S PS  SP  P   S PSSP
G|----4h6-6---4-------------------|
D|-----------------6h76h7---6--6--|
A|--4-------2--2------------------|
E|----------------5-------4--xx---|

    S P   P S PS  SP  P   SP SP
G|----4h6-6----------------------|
D|------------6----6h76h7--4--6--|
A|--4----------------------------|
E|----------4--4--5-------2--4---|

    S P   P S PS  SP  P   S PSSP
G|----4h6-6---4-------------------|
D|-----------------6h76h7---6--6--|
A|--4-------2--2------------------|
E|----------------5-------4--xx---|

    S P   P  SP SP  S P   P SP SP
G|------------6-----------------6--|
D|----6h8-8------6----3h4-4--4-----|
A|-----------4-----------------4---|
E|--6-----------4---2-------2------|

    S P   P  SP SP  S P   P SP SP
G|------------6--------------------|
D|----6h8-8------6----3h4-4--4--4--|
A|-----------4---------------------|
E|--6-----------4---2-------2--2---|


0:53
    S P  P S P  P S S  P SP  P
G|------------------4h66--4h66p4----|
D|----6h77---6h77---------------h6--|
A|----------------4------4----------|
E|--5------5------------------------|

    S P  P S P  P S P  P S PSSP
G|------------------4h66---6--6--|
D|----6h77---6h77----------------|
A|----------------4------4--xx---|
E|--5------5---------------------|

    S P  P S P  P S P  P S P  PS S P  P S P  P     S S S
G|------------------4h66---4h66----6h88---6h88p6----------|
D|----6h77---6h77-------------------------------h8--------|
A|----------------4------4-----4-6------6-----------------|
E|--5------5---------------------------------------4-4-4--|

    S P    P      SPS SSP SP  SPS SSP SP
G|----------------------------------7-----|
D|----7h5p77p5-----8----10-8---7-------7--|
A|------------h7-------------------5------|
E|--5-------------6-x-x8--6---5-x-x---5---|

    SPS SSP SP  S PSS SP SP  SPS SSP SP  SPS SSP SP
G|----------------7----7-----------------------7-----|
D|---8----10-8------------7---8----10-8---7-------7--|
A|--------------5--xx-5-----------------------5------|
E|--6-x-x8--6------------5---6-x-x8--6---5-x-x---5---|

    SPS SSPS SS P S  SPS S
G|--------------7-----7-------|
D|---5----7-------------------|
A|------------5--3h5-5-x-3h5--|
E|--3-x-x5-x-x----------------|

    SPS SSP SP  SPS SSP SP
G|--------------------7-----|
D|---8----10-8---7-------7--|
A|-------------------5------|
E|--6-x-x8--6---5-x-x---5---|

    SPS SSP SP  S PSS SP SP  SPS SSP SP  SPS SSP SP
G|----------------7----7-----------------------7-----|
D|---8----10-8------------7---8----10-8---7-------7--|
A|--------------5--xx-5-----------------------5------|
E|--6-x-x8--6------------5---6-x-x8--6---5-x-x---5---|

    SPS SSPS SS P S  SPS S
G|--------------7-----7-------|
D|---5----7-------------------|
A|------------5--3h5-5-x-3h5--|
E|--3-x-x5-x-x----------------|

1:41
    S S S   S S   S SPS S S   S S S   S S  S SPS S S S
G|------------------------------------------------------|
D|-------------------4------------------------4---------|
A|--4-4-4h6-7-4---------------4-4-4h6-7-4---------------|
E|----------------2-2-2-6-2----------------2-2-2-2-2-2--|

    S P   P S PS  SP  P   SP SP
G|----4h6-6----------------------|
D|------------6----6h76h7--4--6--|
A|--4----------------------------|
E|----------4--4--5-------2--4---|

    S P   P S PS  SP  P   S PSSP
G|----4h6-6---4-------------------|
D|-----------------6h76h7---6--6--|
A|--4-------2--2------------------|
E|----------------5-------4--xx---|

    S  S S S  S S S P   P S PS  S P  P   S PSSP
G|------------------4h6-6---4--------------------|
D|--------------------------------6h76h7---6--6--|
A|--4-------------4-------2--2-------------------|
E|-----4-4-5--2-4---------------5--------4--xx---|

    S P   P  SP SP  S P   P SP SP
G|------------6-----------------6--|
D|----6h8-8------6----3h4-4--4-----|
A|-----------4-----------------4---|
E|--6-----------4---2-------2------|

    S P   P  SP SP  S P   P SP SP
G|------------6--------------------|
D|----6h8-8------6----3h4-4--4--4--|
A|-----------4---------------------|
E|--6-----------4---2-------2--2---|

2:15
    S P  P S P  P S S  P SP  P
G|------------------4h66--4h66p4----|
D|----6h77---6h77---------------h6--|
A|----------------4------4----------|
E|--5------5------------------------|

    S P  P S P  P S P  P S PSSP
G|------------------4h66---6--6--|
D|----6h77---6h77----------------|
A|----------------4------4--xx---|
E|--5------5---------------------|

    S P  P S P  P S P  P S P  PS S P  P S P  P     S S S
G|------------------4h66---4h66----6h88---6h88p6----------|
D|----6h77---6h77-------------------------------h8--------|
A|----------------4------4-----4-6------6-----------------|
E|--5------5---------------------------------------4-4-4--|

    S P    P      SPS SSP SP  SPS SSP SP
G|----------------------------------7-----|
D|----7h5p77p5-----8----10-8---7-------7--|
A|------------h7-------------------5------|
E|--5-------------6-x-x8--6---5-x-x---5---|

    SPS SSP SP  S PSS SP SP  SPS SSP SP  SPS SSP SP
G|----------------7----7-----------------------7-----|
D|---8----10-8------------7---8----10-8---7-------7--|
A|--------------5--xx-5-----------------------5------|
E|--6-x-x8--6------------5---6-x-x8--6---5-x-x---5---|

    SPS SSPS SS P S  SPS S
G|--------------7-----7-------|
D|---5----7-------------------|
A|------------5--3h5-5-x-3h5--|
E|--3-x-x5-x-x----------------|

    SPS SSP SP  SPS SSP SP
G|--------------------7-----|
D|---8----10-8---7-------7--|
A|-------------------5------|
E|--6-x-x8--6---5-x-x---5---|

    SPS SSP SP  S PSS SP SP  SPS SSP SP  SPS SSP SP
G|----------------7----7-----------------------7-----|
D|---8----10-8------------7---8----10-8---7-------7--|
A|--------------5--xx-5-----------------------5------|
E|--6-x-x8--6------------5---6-x-x8--6---5-x-x---5---|

    SPS SSPS SS P S  SPS S
G|--------------7-----7-------|
D|---5----7-------------------|
A|------------5--3h5-5-x-3h5--|
E|--3-x-x5-x-x----------------|

3:11
    S  SS S S PPS S PPS   S  SS S S PPS S PPS
G|---------------------------------------------|
D|------------55----55--------------55----55---|
A|--5\--------------------5\-------------------|
E|-----11-5-3---3-3---3------11-5-3---3-3---3--|

    SPSP P      S S  S S  S S S  S S  S S  S S S
G|------------------------------------------------|
D|---7-5-7p5--------------------------------------|
A|----------h7---------5------5---------5------5--|
E|--5-x---------6-8--5----6-8----6-8--5----3-5----|

    S PP    P      SPS SSP SP  SPS SSP SP
G|-----------------------------------7-----|
D|----77h5p77p5-----8----10-8---7-------7--|
A|-------------h7-------------------5------|
E|--5--------------6-x-x8--6---5-x-x---5---|

    SPS SSP SP  S SSSS S  S  S  SPS SSP SP  SPS SSP SP
G|------------------------------------------------7-----|
D|---8----10-8-------------------8----10-8---7-------7--|
A|--------------5-5555-3h55p3--------------------5------|
E|--6-x-x8--6----------------5--6-x-x8--6---5-x-x---5---|

    SPS SSPS SS P S  SPS S    S S S
G|--------------7-----7--------------|
D|---5----7--------------------------|
A|------------5--3h5-5-x-3h5---------|
E|--3-x-x5-x-x----------------3-5-6--|

3:57
    S S S   S S  S SPS S S   S S S   S S  S PPS S S S
G|-----------------------------------------------------|
D|------------------5-----------------------55---------|
A|--5-5-5h7-8-5--------------5-5-5h7-8-5---------------|
E|---------------3-3-3-7-3----------------3---3-3-3-3--|

    S S S   S S  S SPS S S   S S S   S S  S PPS S S S
G|-----------------------------------------------------|
D|------------------5-----------------------55---------|
A|--5-5-5h7-8-5--------------5-5-5h7-8-5---------------|
E|---------------3-3-3-7-3----------------3---3-3-3-3--|
Advertisements

One thought on “Bye Bye Bye! – C-ute (Bass tab)

  1. hello tablature is harder than I thought thank you for uploading I love that song well I recall you have a good day

Leave a Reply

Fill in your details below or click an icon to log in:

WordPress.com Logo

You are commenting using your WordPress.com account. Log Out / Change )

Twitter picture

You are commenting using your Twitter account. Log Out / Change )

Facebook photo

You are commenting using your Facebook account. Log Out / Change )

Google+ photo

You are commenting using your Google+ account. Log Out / Change )

Connecting to %s