Koi no Megalover – Maximum the Hormone (Bass tab)

Difficulty (1-5): 3
# Strings: 4
Tuning: CGCF (Drop C)
Reference: http://www.youtube.com/watch?v=_C2as7zI9UM

0:01
F|----------------------------------------5--|
C|---------------------------------------5---|
G|--33--112-33---112-3-(x13)-112-3-(x13)-----|
C|-------------------------------------------|

F|------5------5-------------5------5--------| <|
C|----------3-3-3----------------3-3-3-------|  | Play
G|--11/3-3--------5550---11/3-3--------5550--|  |4 Times
C|-------------------------------------------| <|

F|--------------------------------------| <|
C|--------------------------------------|  | Play
G|--------------------------------------|  |2 Times
C|--0-30-3-0-3-0-356--0-30-3-0-3-0-356--| <|

F|---------------------------------------------------------------------|
C|---------------------------------------------------------------------|
G|---------------------------------------------------------------------|
C|--0-653-00--653-00--653-00-30-356-00--653-00--653-00--653-00-30-356--|

F|--------------------------------------------| <|
C|--------------------------------------------|  | Play
G|--------------------------------------------|  |2 Times
C|--00-30-356--00-30-356--00-30-356--530-530--| <|

F|-----------------------------------------------------------------------|
C|-----------------------------------------------------------------------|
G|-----------------------------------------------------------------------|
C|--00--653-00--653-00--653-00-30-356-00--653-00--653-00--653-00-30-356--|

F|--------------------------------------------|
C|--------------------------------------------|
G|--------------------------------------------|
C|--00-30-356--00-30-356--00-30-356--530-530--|

F|----------------------------------------------|
C|----------------------------------------------|
G|----------------------------------------------|
C|--00-30-356--00-30-356--00-30-356--00-30-356--|

1:33
F|--------------------------------------|
C|--0-(x8)---------------3-(x4)-2-(x4)--|
G|---------1-(x8)-3-(x8)----------------|
C|--------------------------------------|

F|-------------------------------|
C|--0-(x8)---------------3-(x8)--|
G|---------1-(x8)-3-(x8)---------|
C|-------------------------------|

F|------------------------------------------|
C|--------------------------------3-3-3333--|
G|------------1-1-1111--3-33-333------------|
C|--0-0-0000--------------------------------|

F|----------------------------------------|
C|--------------------------------3-(x8)--|
G|------------1-1-1111--3-33-333----------|
C|--0-0-0000------------------------------|

F|----------------------------------------| <|
C|-------------------33333-233-33333-233--|  | Play
G|--1-(x8)-/-13-(x8)----------------------|  |2 Times
C|----------------------------------------| <|

F|---------------------5-----2--------------|
C|-------------------3--3--2--2---7-----5---|
G|--1-1-11-3-33-333-------------5--5--3--3--|
C|------------------------------------------|

F|-------------------5--|
C|------------------5---|
G|--1-(x16)-3-(x13)-----|
C|----------------------|

2:20
F|------5------5-------------5------5--------| <|
C|----------3-3-3----------------3-3-3-------|  | Play
G|--11/3-3--------5550---11/3-3--------5550--|  |4 Times
C|-------------------------------------------| <|

F|--------------------------------------| <|
C|--------------------------------------|  | Play
G|--------------------------------------|  |2 Times
C|--0-30-3-0-3-0-356--0-30-3-0-3-0-356--| <|

F|---------------------------------------------------------------------|
C|---------------------------------------------------------------------|
G|---------------------------------------------------------------------|
C|--0-653-00--653-00--653-00-30-356-00--653-00--653-00--653-00-30-356--|

F|--------------------------------------------| <|
C|--------------------------------------------|  | Play
G|--------------------------------------------|  |2 Times
C|--00-30-356--00-30-356--00-30-356--530-530--| <|

F|-----------------------------------------------------------------------|
C|-----------------------------------------------------------------------|
G|-----------------------------------------------------------------------|
C|--00--653-00--653-00--653-00-30-356-00--653-00--653-00--653-00-30-356--|

F|--------------------------------------------|
C|--------------------------------------------|
G|--------------------------------------------|
C|--00-30-356--00-30-356--00-30-356--530-530--|

F|----------------------------------------------|
C|----------------------------------------------|
G|----------------------------------------------|
C|--00-30-356--00-30-356--00-30-356--00-30-356--|

3:40
F|--------------------------------------|
C|--0-(x8)---------------3-(x4)-2-(x4)--|
G|---------1-(x8)-3-(x8)----------------|
C|--------------------------------------|

F|-------------------------------|
C|--0-(x8)---------------3-(x8)--|
G|---------1-(x8)-3-(x8)---------|
C|-------------------------------|

F|------------------------------------------|
C|--------------------------------3-3-3333--|
G|------------1-1-1111--3-33-333------------|
C|--0-0-0000--------------------------------|

F|----------------------------------------|
C|--------------------------------3-(x8)--|
G|------------1-1-1111--3-33-333----------|
C|--0-0-0000------------------------------|

F|----------------------------------------| <|
C|-------------------33333-233-33333-233--|  | Play
G|--1-(x8)-/-13-(x8)----------------------|  |2 Times
C|----------------------------------------| <|

F|---------------------5-----2--------------|
C|-------------------3--3--2--2---7-----5---|
G|--1-1-11-3-33-333-------------5--5--3--3--|
C|------------------------------------------|

F|-------------------5--|
C|------------------5---|
G|--1-(x16)-3-(x13)-----|
C|----------------------|

F|------5------5-------------5------5--------| <|
C|----------3-3-3----------------3-3-3-------|  | Play
G|--11/3-3--------5550---11/3-3--------5550--|  |6 Times
C|-------------------------------------------| <|

F|----------------------------------------------|
C|---------------------------------------3-3-3--|
G|--33--112-33---112-3-(x13)-112-33-33-3--------|
C|----------------------------------------------|
Advertisements

Leave a Reply

Fill in your details below or click an icon to log in:

WordPress.com Logo

You are commenting using your WordPress.com account. Log Out / Change )

Twitter picture

You are commenting using your Twitter account. Log Out / Change )

Facebook photo

You are commenting using your Facebook account. Log Out / Change )

Google+ photo

You are commenting using your Google+ account. Log Out / Change )

Connecting to %s