Killing Me – SiM (Bass tab)

Difficulty (1-5): 3
# Strings: 5
Tuning: CEADG
Reference: http://www.youtube.com/watch?v=nreuzgn7AGQ

0:01
G|---------------------------------|
D|---------------------------------|
A|---------------------------------|
E|---------------------------------|
C|--00-------00-------00-------00--|

G|-----------------------------------------------|
D|-----------------------------------------------|
A|-----------------------------------------------|
E|-----------------------------------------------|
C|--00--0-0-0-0-321---00-0-0--0-10-0-10-0-10h12--|

G|--------------------------------------------------------------------|
D|--------------------------------------------------------------------|
A|--------------------------------------------------------------------|
E|--------------------------------------------------------------------|
C|--00--0-0-0-0-321---00-0-0-050-7\1-0~ -0~ -0~ --0/15\/15\/17\---00--|

G|-----------------------------------------------|
D|-----------------------------------------------|
A|-----------------------------------------------|
E|-----------------------------------------------|
C|--00--0-0-0-0-321---00-0-0--0-10-0-10-0-10h12--|

G|------------------------------------|
D|------------------------------------|
A|------------------------------------|
E|------------------------------------|
C|--00--0-0-0-0-321---00-0-0-050-7\1--|

G|---------------------------------------------|
D|---------------------------------------------|
A|---------------------------------------------|
E|---------------------------------------------|
C|--0-0-000-0-000-0-000---0-0-000-0-000-0-000--|

G|----------------------------------------|
D|----------------------------------------|
A|----------------------------------------|
E|----------------------------------------|
C|--0-0-000-0-000-0-000---0-0-0-000-0-00--|

0:47
G|---------------------------------|
D|---------------------------------|
A|-----------------333-3-----------|
E|--444-464-333-36------53---------|
C|-------------------------333-35--|

G|--------------------------------------------|
D|--------------------------------------------|
A|--------------------------------------------|
E|--444-464-333-36-888-8810--11-11-11--11-13--|
C|--------------------------------------------|

G|-----------------------------------------------------------|
D|-----------------------------------------------------------|
A|--11-11-11--11-13-11--10-10-13-10-13-10-8--333-3-----------|
E|------------------------------------------------53---------|
C|---------------------------------------------------333-35--|

G|--------------------------------|
D|--------------------------------|
A|--------------------------------|
E|--444-444-4464-644-/6-66666666--|
C|--------------------------------|

G|-----------------------------------------------|
D|-----------------------------------------------|
A|-----------------------------------------------|
E|-----------------------------------------------|
C|--00--0-0-0-0-321---00-0-0--0-10-0-10-0-10h12--|

G|------------------------------------|
D|------------------------------------|
A|------------------------------------|
E|------------------------------------|
C|--00--0-0-0-0-321---00-0-0-050-7\1--|

G|--------------------------------------------|
D|--------------------------------------------|
A|--------------------------------------------|
E|--------------------------------------------|
C|--00-------00-------00-------00-0-000-0-00--|

1:23
G|---------------------------------|
D|---------------------------------|
A|-----------------333-3-----------|
E|--444-464-333-36------53---------|
C|-------------------------333-35--|

G|--------------------------------------------|
D|--------------------------------------------|
A|--------------------------------------------|
E|--444-464-333-36-888-8810--11-11-11--11-13--|
C|--------------------------------------------|

G|----------------------------------------------------------------|
D|----------------------------------------------------------------|
A|--11-11-11--11-11-11--/14-14-14--14-14-14--/15-15-15--15-13-15--|
E|----------------------------------------------------------------|
C|----------------------------------------------------------------|

G|----------------------------------------------------------------|
D|----------------------------------------------------------------|
A|----------------------------------------------------------------|
E|--13-13-13--13-13--/16-16-16--16-16-16--16-(x7)-/18-(x16)-------|
C|-----------------------------------------------------------0~ --|

G|------------------------------------------------------|
D|------------------------------------------------------|
A|---------------------4h5p4h5p4h5p4h5------------------|
E|-------------------------------------3h4p3h4p3h4p3h4--|
C|--0-0-000-0-000-00----------------------------------|

G|-----------------------------------------------------|
D|-----------------------------------------------------|
A|--------------------4h5p4h5p4h5p4h5------------------|
E|------------------------------------3h4p3h4p3h4p3h4--|
C|--00-0-000-0-000-00----------------------------------|

G|-----------------------------------------------------|
D|-----------------------------------------------------|
A|--------------------4h5p4h5p4h5p4h5------------------|
E|------------------------------------3h4p3h4p3h4p3h4--|
C|--00-0-000-0-000-00----------------------------------|

G|---------------------|
D|---------------------|
A|---------------------|
E|--------------4-3-6--|
C|--00-0-000-00--------|

2:05
G|----------------------------------|
D|---------10/12108--6-6h86-5-6p5---|
A|----8h10------------6----------6--|
E|--8-------------------------------|
C|----------------------------------|

G|--------------------------------|
D|-------------------------3/53---|
A|--------4/65-6p5-----3h5-----5--|
E|----4h6---------6--3------------|
C|--3-----------------------------|

G|--------------------------------|
D|---------10/12108--6-6h86-6810--|
A|----8h10------------6-----------|
E|--8-----------------------------|
C|--------------------------------|

G|--------8/108------------------------------------|
D|----6h8------8-----------------------------------|
A|--6------------3-3333333-------3-3333333-666666--|
E|---------------------------4-3-------------------|
C|-------------------------------------------------|

G|---------------------------------|
D|---------------------------------|
A|-----------------333-3-----------|
E|--444-464-333-36------53---------|
C|-------------------------333-35--|

G|--------------------------------------------|
D|--------------------------------------------|
A|--/11-11-11--11-11-11--/14-14-14--14-14-14--|
E|--------------------------------------------|
C|--------------------------------------------|

G|------------------------------------------------|
D|---------------15-------------------------------|
A|--/15-15-18-15----15-15--/18-18-18-18-18-17-15--|
E|------------------------------------------------|
C|------------------------------------------------|

G|--------------------------------|
D|--------------------------------|
A|--------------------------------|
E|--444-444-4464-644-/6-66666666--|
C|--------------------------------|

2:42
G|-----------------------------------------------|
D|-----------------------------------------------|
A|-----------------------------------------------|
E|-----------------------------------------------|
C|--00--0-0-0-0-321---00-0-0--0-10-0-10-0-10h12--|

G|----------------------------------------|
D|----------------------------------------|
A|----------------------------------------|
E|----------------------------------------|
C|--00--0-0-0-0-321---00-0-0-050-7\1--00--|
Advertisements

Leave a Reply

Fill in your details below or click an icon to log in:

WordPress.com Logo

You are commenting using your WordPress.com account. Log Out / Change )

Twitter picture

You are commenting using your Twitter account. Log Out / Change )

Facebook photo

You are commenting using your Facebook account. Log Out / Change )

Google+ photo

You are commenting using your Google+ account. Log Out / Change )

Connecting to %s