Slow Dance – Suneohair (Bass tab)

Difficulty (1-5): 3
# Strings: 4
Tuning: EADG (Standard)
Reference: http://www.youtube.com/watch?v=SF-R6If5WjA

0:11
G|-------------------------------------------------------------|
D|----55-------------------------------------------------------|
A|--33----3-(x16)-10-(x8)-7-(x7)-5---3-(x16)-10-(x8)-7-(x7)-5--|
E|-------------------------------------------------------------|

G|--------------------------------------------------|
D|--------------------------------------------------|
A|--3-(x16)-10-(x16)--3-(x8)-2-(x8)-7-(x8)-10-(x8)--|
E|--------------------------------------------------|

G|--------------------------------------------------|
D|--------------------------------------------------|
A|--3-(x16)-10-(x16)--3-(x8)-2-(x8)-7-(x8)-10-(x8)--|
E|--------------------------------------------------|

G|-------------------------------------------------------|
D|-------------------------------------------------------|
A|--3-(x16)-10-(x8)-7-(x7)-5---3-(x16)-10-(x8)-7-(x7)-5--|
E|-------------------------------------------------------|

G|-------------------------------------------------------|
D|-------------------------------------------------------|
A|--3-(x16)-10-(x8)-7-(x7)-5---3-(x16)-10-(x8)-7-(x7)-5--|
E|-------------------------------------------------------|

1:10
G|--------------------------------------------------|
D|--------------------------------------------------|
A|--3-(x16)-10-(x16)--3-(x8)-2-(x8)-7-(x8)-10-(x8)--|
E|--------------------------------------------------|

G|--------------------------------------------------|
D|--------------------------------------------------|
A|--3-(x16)-10-(x16)--3-(x8)-2-(x8)-7-(x8)-10-(x8)--|
E|--------------------------------------------------|

G|-----------------------------------|
D|-----------------------------------|
A|--3-(x8)-5-(x8)-10-(x8)-7777-7575--|
E|-----------------------------------|

G|-----------------------------------------------|
D|-----------------------------------------------|
A|--3-(x8)-5-(x8)----------/1010109\-/101010-----|
E|----------------3333-778------------------10\--|

G|-------------------------------------------------------------------|
D|-------------------------------------------------------------------|
A|--3-(x8)-5-(x8)-------------/7775--3-(x13)-233-5-(x10)-99-1010-99--|
E|----------------3-(x8)-0000----------------------------------------|

1:57
G|----------------------------------------------------------------|
D|----------------------------------------------------------------|
A|-----------------------3-(x8)-2-(x8)-77777----0-(x8)-55555-755--|
E|--3-(x8)-2-(x8)-0-(x8)--------------------577-------------------|

G|----------------------------------------------------------------|
D|----------------------------------------------------------------|
A|-----------------------3-(x8)-2-(x8)-77777----0-(x8)-55555-755--|
E|--3-(x8)-2-(x8)-0-(x8)--------------------577-------------------|

G|-------------------------------------------------------|
D|-------------------------------------------------------|
A|--3-(x16)-10-(x8)-7-(x7)-5---3-(x16)-10-(x8)-7-(x7)-5--|
E|-------------------------------------------------------|

G|-------------------------------------------------------|
D|-------------------------------------------------------|
A|--3-(x16)-10-(x8)-7-(x7)-5---3-(x16)-10-(x8)-7-(x7)-5--|
E|-------------------------------------------------------|

G|-----------------------------------------|
D|-----------------------------------------|
A|--33333-233--55555--5-------------/7775--|
E|------------------35---3-(x8)-0000-------|

G|------------------------------------------------------|
D|------------------------------------------------------|
A|--33333-233--55555-5------------/1010109\-/101010-----|
E|------------------5-5--3333-778------------------10\--|

G|----------------------------------------------|
D|----------------------------------------------|
A|--33333-233--555555----------------/10910-----|
E|-------------------55--3-(x8)-0000-------10\--|

G|----------------------------------|
D|----------------------------------|
A|--3-(x13)-233-5-(x10)-99-1010-99--|
E|----------------------------------|

3:07
G|----------------------------------------------------------------|
D|----------------------------------------------------------------|
A|-----------------------3-(x8)-2-(x8)-77777----0-(x8)-55555-755--|
E|--3-(x8)-2-(x8)-0-(x8)--------------------577-------------------|

G|----------------------------------------------------------------|
D|----------------------------------------------------------------|
A|-----------------------3-(x8)-2-(x8)-77777----0-(x8)-55555-755--|
E|--3-(x8)-2-(x8)-0-(x8)--------------------577-------------------|

G|----------------------------------------------------------------|
D|----------------------------------------------------------------|
A|-----------------------3-(x8)-2-(x8)-77777----0-(x8)-55555-755--|
E|--3-(x8)-2-(x8)-0-(x8)--------------------577-------------------|

G|----------------------------------------------------------------|
D|----------------------------------------------------------------|
A|-----------------------3-(x8)-2-(x8)-77777----0-(x8)-55555-755--|
E|--3-(x8)-2-(x8)-0-(x8)--------------------577-------------------|

G|--------------------------------------|  <|
D|--------------------------------------|   | Play
A|--3-(x16)-1010108-10101010--7-(x7)-5--|   |8 Times
E|--------------------------------------|  <|

4:40
G|-------------------------------------------------|
D|-------------------------------------------------|
A|--3~ --/--14~ --\-10~ -\-3~ --/--14~ --\-10~ -\--|
E|-------------------------------------------------|

G|-----------------------------------------------------|
D|-----------------------------------------------------|
A|--3~ --/--14~ --\-10~ -\-3~ --/--14~ --\-10~ -\-3~ --|
E|-----------------------------------------------------|
Advertisements

Leave a Reply

Fill in your details below or click an icon to log in:

WordPress.com Logo

You are commenting using your WordPress.com account. Log Out / Change )

Twitter picture

You are commenting using your Twitter account. Log Out / Change )

Facebook photo

You are commenting using your Facebook account. Log Out / Change )

Google+ photo

You are commenting using your Google+ account. Log Out / Change )

Connecting to %s