Get Out – Ace of Angels (Bass tab)

Difficulty (1-5): 2
# Strings: 4
Tuning: EADG (Standard)
Reference: http://www.youtube.com/watch?v=yktcrkuj9m4

0:01
G|------------------------------------------------------|
D|------4~ --6~ --6h8-6-------------------4~ --6~ ------|
A|--2~ ----------6-----97~ --6-7p64---2~ ----------7~ --|
E|------------------------------------------------------|

G|--------------------------------------------------------------------------|
D|-----------------------4-4-4-4-4-4-4-4--6-6-6-6-6-6-6-6-------------------|
A|--15\-2-2-2-2-2-2-2-2------------------------------------7-7-7-7-7-7-7-7--|
E|--------------------------------------------------------------------------|

G|------------------------------------------|
D|--66-6--4h6-6--6h86\---22-2--1h2-2---2-4--|
A|----6--6------6----------2--2-------2-----|
E|------------------------------------------|

G|---------------------------------|
D|--66-6--4h6-6--6h86\--2222222-4--|
A|----6--6------6------------------|
E|---------------------------------|

0:57
G|---------------------------------|  <|
D|---------------------------------|   | Play
A|--2-(x8)--6(x8)----------7-(x8)--|   |4 Times
E|-----------------4-(x8)----------|  <|

G|--------------------------------------------------------------------------|
D|-----------------------4-4-4-4-4-4-4-4--6-6-6-6-6-6-6-6-------------------|
A|--15\-2-2-2-2-2-2-2-2------------------------------------7-7-7-7-7-7-7-7--|
E|--------------------------------------------------------------------------|

G|------------------------------------------|
D|--66-6--4h6-6--6h86\---22-2--1h2-2---2-4--|
A|----6--6------6----------2--2-------2-----|
E|------------------------------------------|

G|---------------------------------|
D|--66-6--4h6-6--6h86\--2222222-4--|
A|----6--6------6------------------|
E|---------------------------------|

1:54
G|---------------------------------|  <|
D|---------------------------------|   | Play
A|--2-(x8)--6(x8)----------7-(x8)--|   |4 Times
E|-----------------4-(x8)----------|  <|

G|------------------------------------------|
D|-------3-3-3-3--5-5-5-5--6-6--------------|
A|-----------------------------6-8-8-8-8-8--|
E|--17\-------------------------------------|

G|-----------------------|
D|-----------------------|
A|-----------666666666\--|
E|--6-(x16)--------------|

G|-----------------------------------------------|
D|-----------------13-15-13----------------------|
A|-----------13-15----------15-13----------------|
E|--4-/8-/16----------------------16~ -\9-(x11)--|

2:49
G|---------------------------------|
D|---------------------------------|
A|--2-(x6)--6(x8)----------7-(x8)--|
E|-----------------4-(x8)----------|

G|---------------------------------|  <|
D|---------------------------------|   | Play
A|--2-(x8)--6(x8)----------7-(x8)--|   |3 Times
E|-----------------4-(x8)----------|  <|

G|---------------------------------|
D|---------------------------------|
A|--2-(x6)--6(x8)----------7-(x8)--|
E|-----------------4-(x8)----------|

G|---------------------------------|
D|---------------------------------|
A|--2-(x8)--6(x8)----------7-(x8)--|
E|-----------------4-(x8)----------|
Advertisements

2 thoughts on “Get Out – Ace of Angels (Bass tab)

Leave a Reply

Fill in your details below or click an icon to log in:

WordPress.com Logo

You are commenting using your WordPress.com account. Log Out / Change )

Twitter picture

You are commenting using your Twitter account. Log Out / Change )

Facebook photo

You are commenting using your Facebook account. Log Out / Change )

Google+ photo

You are commenting using your Google+ account. Log Out / Change )

Connecting to %s