Maximum the Hormone – Maximum the Hormone (Bass tab)

Difficulty (1-5): 4
# Strings: 4
Tuning: CGCF (Drop C)
Reference: http://www.youtube.com/watch?v=NJBtu7Q_qoA

0:07
F|----------------------------------------------------|
C|----------------------------------------------------|
G|----------------------------------------------------|
C|--0101--01-0301h2--01-0301h2--01-0301h2--01-0301h2--|

F|----------------------------------------------|
C|----------------------------------------------|
G|----------------------------------------------|
C|--01-0301h2--01-0301h2--01-0301h2--01-0301h2--|

F|-----------------------------------------------|
C|-----------------------------------------------|
G|-----------------------------------------------|
C|--0--0/12-0-10-0-10h12---0--0/12-0-10-0-10h12--|

F|-----------------------------------------------|
C|-----------------------------------------------|
G|-----------------------------------------------|
C|--0--0/12-0-10-0-10h12---0--0/12-0-10-0-10h12--|

F|-----------------------------------------------|
C|-----------------------------------------------|
G|-----------------------------------------------|
C|--0--0/12-0-10-0-10h12---0--0/12-0-10-0-10h12--|

F|-----------------------------------------------|
C|-----------------------------------------------|
G|-----------------------------------------------|
C|--0--0/12-0-10-0-10h12---0--0/12-0-10-0-10h12--|

0:36
    T  T     T  T  T     T  T  T
F|-----------19----------17-----------| <|
C|-----10h12-------10h12-------10h12--|  |  Play
G|--17----------17----------17--------|  |19 Times
C|------------------------------------| <|

    T  T     T  T  T     T  
F|-----------19----------17--|
C|-----10h12-------10h12-----|
G|--17----------17-----------|
C|---------------------------|

F|--------------------------------------------|
C|--------------------------------------------|
G|--------------------------------------------|
C|--0-10-12--0-10-11-12--0-10-12--0-10-11-12--|

F|--------------------------------------------|
C|--------------------------------------------|
G|--------------------------------------------|
C|--0-10-12--0-10-11-12--0-10-12--0-10-11-12--|

F|--------------------------------------------|
C|--------------------------------------------|
G|--------------------------------------------|
C|--0-10-12--0-10-11-12--0-10-12--0-10-11-12--|

F|--------------------------------------------|
C|--------------------------------------------|
G|--------------------------------------------|
C|--0-10-12--0-10-11-12--0-10-12--0-10-11-12--|

    T  T     T  T  T     T  T  T
F|-----------19----------17-----------| <|
C|-----10h12-------10h12-------10h12--|  |  Play
G|--17----------17----------17--------|  |11 Times
C|------------------------------------| <|

    T  T     T  T  T     T  
F|-----------19----------17--|
C|-----10h12-------10h12-----|
G|--17----------17-----------|
C|---------------------------|

1:43
F|--------------------------------------------|
C|--------------------------------------------|
G|--------------------------------------------|
C|--0-10-12--0-10-11-12--0-10-12--0-10-11-12--|

F|--------------------------------------------|
C|--------------------------------------------|
G|--------------------------------------------|
C|--0-10-12--0-10-11-12--0-10-12--0-10-11-12--|

F|--------------------------------------------|
C|--------------------------------------------|
G|--------------------------------------------|
C|--0-10-12--0-10-11-12--0-10-12--0-10-11-12--|

F|----------------------------------------------|
C|----------------------------------------------|
G|----------------------------------------------|
C|--0-10-12--0-10-11-12--0-10-12--0-10-11-12-0--|

F|---------------------------------------------------|
C|---------------------------------------------------|
G|---------------------------------------------------|
C|--(0)-(0)---(0)-(0)---(0)-(0)---(0)-(0)---(0)-(0)--|

F|---------------------------------------------------|
C|---------------------------------------------------|
G|---------------------------------------------------|
C|--(0)-(0)---(0)-(0)---(0)-(0)---(0)-(0)---(0)-(0)--|

F|------------------------------------------------------------------|
C|------------------------------------------------------------------|
G|------------------------------------------------------------------|
C|--0-0-00--0-0-00--0-0-00--0-0-00--0-0-00--0-0-00--0-0-00--0-0-00--|

F|-------------------------------------------------------|
C|-------------------------------------------------------|
G|--0-3h50-3h50-60-3h50-3605---0-3h50-3h50-60-3h50-3605--|
C|-------------------------------------------------------|

F|-------------------------------------------------------|
C|-------------------------------------------------------|
G|--0-3h50-3h50-60-3h50-3605---0-3h50-3h50-60-3h50-3605--|
C|-------------------------------------------------------|

2:33
F|----------------------------------------------------|
C|----------------------------------------------------|
G|----------------------------------------------------|
C|--0101--01-0301h2--01-0301h2--01-0301h2--01-0301h2--|

F|-----------------------------------------------|
C|-----------------------------------------------|
G|-----------------------------------------------|
C|--0--0/12-0-10-0-10h12---0--0/12-0-10-0-10h12--|

F|-----------------------------------------------|
C|-----------------------------------------------|
G|-----------------------------------------------|
C|--0--0/12-0-10-0-10h12---0--0/12-0-10-0-10h12--|

F|-----------------------------------------------|
C|-----------------------------------------------|
G|-----------------------------------------------|
C|--0--0/12-0-10-0-10h12---0--0/12-0-10-0-10h12--|

F|-----------------------------------------------|
C|-----------------------------------------------|
G|-----------------------------------------------|
C|--0--0/12-0-10-0-10h12---0--0/12-0-10-0-10h12--|

    T  T     T  T  T     T  T  T
F|-----------19----------17-----------| <|
C|-----10h12-------10h12-------10h12--|  |  Play
G|--17----------17----------17--------|  |19 Times
C|------------------------------------| <|

    T   
F|--------|
C|--------|
G|--17~ --|
C|--------|

3:29
F|--------------------------------------------|
C|--------------------------------------------|
G|--------------------------------------------|
C|--0-10-12--0-10-11-12--0-10-12--0-10-11-12--|

F|--------------------------------------------|
C|--------------------------------------------|
G|--------------------------------------------|
C|--0-10-12--0-10-11-12--0-10-12--0-10-11-12--|

F|--------------------------------------------|
C|--------------------------------------------|
G|--------------------------------------------|
C|--0-10-12--0-10-11-12--0-10-12--0-10-11-12--|

F|----------------------------------------------|
C|----------------------------------------------|
G|----------------------------------------------|
C|--0-10-12--0-10-11-12--0-10-12--0-10-11-12-0--|

F|---------------------------------------------------|
C|---------------------------------------------------|
G|---------------------------------------------------|
C|--(0)-(0)---(0)-(0)---(0)-(0)---(0)-(0)---(0)-(0)--|

F|---------------------------------------------------|
C|---------------------------------------------------|
G|---------------------------------------------------|
C|--(0)-(0)---(0)-(0)---(0)-(0)---(0)-(0)---(0)-(0)--|

F|------------------------------------------------------------------|
C|------------------------------------------------------------------|
G|------------------------------------------------------------------|
C|--0-0-00--0-0-00--0-0-00--0-0-00--0-0-00--0-0-00--0-0-00--0-0-00--|

4:08
F|-------------------------------------------------------|
C|-------------------------------------------------------|
G|--0-3h50-3h50-60-3h50-3605---0-3h50-3h50-60-3h50-3605--|
C|-------------------------------------------------------|

F|-------------------------------------------------------|
C|-------------------------------------------------------|
G|--0-3h50-3h50-60-3h50-3605---0-3h50-3h50-60-3h50-3605--|
C|-------------------------------------------------------|


F|----------------------------------------------------|
C|----------------------------------------------------|
G|--0-3h50-3h50-60-3h50-3605---0-3h50-3h50-60-3h50-3--|
C|----------------------------------------------------|


F|-------------------------------------------------------|
C|-------------------------------------------------------|
G|--0-3h50-3h50-60-3h50-3605---0-3h50-3h50-60-3h50-3605--|
C|-------------------------------------------------------|

F|--------------------------------------------------------|
C|--------------------------------------------------------|
G|--0-3h50-3h50-60-3h50-3605---0-3h50-3h50-60-3h50-3605---|
C|-----------------------------------------------------0--|

F|--------------------------------------|
C|--------------------------------------|
G|--------------------------------------|
C|--0-0-030333--030333--030333--030333--|

F|-----------------------------------------|
C|-----------------------------------------|
G|-----------------------------------------|
C|--030333--030333--030333--030333--030~ --|
Advertisements

Leave a Reply

Fill in your details below or click an icon to log in:

WordPress.com Logo

You are commenting using your WordPress.com account. Log Out / Change )

Twitter picture

You are commenting using your Twitter account. Log Out / Change )

Facebook photo

You are commenting using your Facebook account. Log Out / Change )

Google+ photo

You are commenting using your Google+ account. Log Out / Change )

Connecting to %s