In The Rain – 9Goats Black Out (Bass tab)

Difficulty (1-5): 3
# Strings: 4
Tuning: DADG (Drop D)
Reference: http://www.youtube.com/watch?v=BaafceFsLQc

0:02
G|---------------------------------------------| <|
D|---------------------------------------------|  | Play
A|---6-----6--------/666---6-----6----6-6-6----|  |6 Times
D|--6--986--96--1-1-------6--986--96-------89--| <|

G|---------------------------------------------------------|
D|---------------------------------------------------------|
A|---66----------11-13-11---66-----------------------------|
D|--6--68-89-9/13----------6--68-89-13-16-13--11-13-11-98--|

G|---------------------------------------------------------|
D|---------------------------------------------------------|
A|---66----------11-13-11---66-----------------------------|
D|--6--68-89-9/13----------6--68-89-13-16-13--11-13-11-98--|

1:17
G|------------------43-44444--------------|
D|---------------464--------44------------|
A|------------/46-------------4-66666-65--|
D|--2-2-22222------------------------6----|

G|--------------------------------------------|
D|--------------------------------------------|
A|--4-(x8)-----/9-98910-11-(x8)-666-4/646-21--|
D|---------444--------------------------------|

G|------------------43-44444--------------|
D|---------------464--------44------------|
A|------------/46-------------4-66666-65--|
D|--2-2-22222------------------------6----|

G|-------------------------------------|
D|-------------------------------/98\--|
A|--4-(x8)-6-(x8)-7777-8888-99999------|
D|-------------------------------------|

G|---------------------------------------------| <|
D|---------------------------------------------|  | Play
A|---6-----6--------/666---6-----6----6-6-6----|  |3 Times
D|--6--986--96--1-1-------6--986--96-------89--| <|

G|----------------------------------------------------|
D|----------------------------------------/689-8-6~ --|
A|---6-----6--------/666---6-----6----6-6-------------|
D|--6--986--96--1-1-------6--986--96------------------|

2:37
G|------------------43-44444--------------|
D|---------------464--------44------------|
A|------------/46-------------4-66666-65--|
D|--2-2-22222------------------------6----|

G|--------------------------------------------|
D|--------------------------------------------|
A|--4-(x8)-----/9-98910-11-(x8)-666-4/646-21--|
D|---------444--------------------------------|

G|------------------43-44444--------------|
D|---------------464--------44------------|
A|------------/46-------------4-66666-65--|
D|--2-2-22222------------------------6----|

G|-------------------------------------|
D|-------------------------------/98\--|
A|--4-(x8)-6-(x8)-7777-8888-99999------|
D|-------------------------------------|

G|------------------------------------------|
D|------------------------------------------|
A|----6--6542-12--21-----6--6542-12-/6-646--|
D|--6--6--------1---4--6--6-----------------|

G|----------------------------------------|
D|----------------------------------------|
A|--77-77-7-77777-777--77-77-7-77777-777--|
D|----------------------------------------|

G|---------------------------------------|
D|---------------------------------------|
A|--77-77-7-77777-777--77-77-7-7777-64---|
D|------------------------------------4--|

3:52
G|---------------------------------|
D|---------------------------------|
A|---------6\----------------------|
D|--/17\--6---6868-8/9-989-119-84--|

G|-----------------------------------|
D|-----------------------------------|
A|---6\------------------------------|
D|--6---68689-13-16-13--11-13-11-98--|

G|------------------------------------------------------------|
D|------------------------------------------------------------|
A|------------------------------------------------------------|
D|--6-(x3)-8-(x3)-9-(x3)-11-(x3)-13-(x4)-14-(x7)-16-(x6)-14\--|

G|------------------43-44444--------------|
D|---------------464--------44------------|
A|------------/46-------------4-66666-65--|
D|--2-2-22222------------------------6----|

G|--------------------------------------------|
D|--------------------------------------------|
A|--4-(x8)-----/9-98910-11-(x8)-666-4/646-21--|
D|---------444--------------------------------|

G|------------------43-44444--------------|
D|---------------464--------44------------|
A|------------/46-------------4-66666-65--|
D|--2-2-22222------------------------6----|

G|-------------------------------------|
D|-------------------------------/98\--|
A|--4-(x8)-6-(x8)-7777-8888-99999------|
D|-------------------------------------|

4:50
G|------------------------------------------|
D|------------------------------------------|
A|----6--6542-12--21-----6--6542-12-/6-646--|
D|--6--6--------1---4--6--6-----------------|

G|----------------------------------------|
D|----------------------------------------|
A|--77-77-7-77777-777--77-77-7-77777-777--|
D|----------------------------------------|

G|---------------------------------------|
D|---------------------------------------|
A|--77-77-7-77777-777--77-77-7-7777-64---|
D|------------------------------------4--|
Advertisements

Leave a Reply

Fill in your details below or click an icon to log in:

WordPress.com Logo

You are commenting using your WordPress.com account. Log Out / Change )

Twitter picture

You are commenting using your Twitter account. Log Out / Change )

Facebook photo

You are commenting using your Facebook account. Log Out / Change )

Google+ photo

You are commenting using your Google+ account. Log Out / Change )

Connecting to %s