To You – Teen Top (Bass tab)

Difficulty (1-5): 3
# Strings: 4
Tuning: EADG (Standard)
Reference: http://www.youtube.com/watch?v=ON5IEMsI7BE

0:00
G|---------------------88----------------------66-6--65---|
D|--868---88-------------87---646-----66---------------6--|
A|-----8-8--87---646-------------4h66---65---44----4------|
E|------------------6-6-----------------------------------|

G|---------------------88----------------------66-6--65---|
D|--868---88-------------87---646-----66---------------6--|
A|-----8-8--87---646-------------4h66---65---44----4------|
E|------------------6-6-----------------------------------|

G|---------------------88----------------------66-6--65---|
D|--868---88-------------87---646-----66---------------6--|
A|-----8-8--87---646-------------4h66---65---44----4------|
E|------------------6-6-----------------------------------|

G|---------------------88----------------------66-6--65---|
D|--868---88-------------87---646-----66---------------6--|
A|-----8-8--87---646-------------4h66---65---44----4------|
E|------------------6-6-----------------------------------|

G|---------------------88----------------------66-6--65---|
D|--868---88-------------87---646-----66---------------6--|
A|-----8-8--87---646-------------4h66---65---44----4------|
E|------------------6-6-----------------------------------|

00:45
G|---------------------88-----------------------65---|
D|--868---88-------------87---646-----66----------6--|
A|-----8-8--87---646-------------4h66---65-4---4-----|
E|------------------6-6------------------------------|

G|---------------------88----------------------66-6--65---|
D|--868---88-------------87---646-----66---------------6--|
A|-----8-8--87---646-------------4h66---65---44----4------|
E|------------------6-6-----------------------------------|

G|---------------------88----------------------66-6--65---|
D|--868---88-------------87---646-----66---------------6--|
A|-----8-8--87---646-------------4h66---65---44----4------|
E|------------------6-6-----------------------------------|

G|---------------------88----------------------66-6--65---|
D|--868---88-------------87---646-----66---------------6--|
A|-----8-8--87---646-------------4h66---65---44----4------|
E|------------------6-6-----------------------------------|

G|---------------------88----------------------66-6--65---|
D|--868---88-------------87---646-----66---------------6--|
A|-----8-8--87---646-------------4h66---65---44----4------|
E|------------------6-6-----------------------------------|

G|---------------------88----------------------66-6--65---|
D|--868---88-------------87---646-----66---------------6--|
A|-----8-8--87---646-------------4h66---65---44----4------|
E|------------------6-6-----------------------------------|

1:40
G|----------------------------------------|
D|--/8-8/13-13--13h15-13-11--------/889\--|
A|-------------------------11-11\88-------|
E|----------------------------------------|

G|-------------------13-13/15-13--13/15--15/17--17/18--18-17\--|
D|--/8-8/13-13--13h15------------------------------------------|
A|-------------------------------------------------------------|
E|-------------------------------------------------------------|

G|---------------------88----------------------66-6--65---|
D|--868---88-------------87---646-----66---------------6--|
A|-----8-8--87---646-------------4h66---65---44----4------|
E|------------------6-6-----------------------------------|

G|---------------------88----------------------66-6--65---|
D|--868---88-------------87---646-----66---------------6--|
A|-----8-8--87---646-------------4h66---65---44----4------|
E|------------------6-6-----------------------------------|

G|---------------------88----------------------66-6--65---|
D|--868---88-------------87---646-----66---------------6--|
A|-----8-8--87---646-------------4h66---65---44----4------|
E|------------------6-6-----------------------------------|

G|---------------------88----------------------66-6--65---|
D|--868---88-------------87---646-----66---------------6--|
A|-----8-8--87---646-------------4h66---65---44----4------|
E|------------------6-6-----------------------------------|

G|---------------------88----------------------66-6--65---|
D|--868---88-------------87---646-----66---------------6--|
A|-----8-8--87---646-------------4h66---65---44----4------|
E|------------------6-6-----------------------------------|

G|---------------------88----------------------66-6--65---|
D|--868---88-------------87---646-----66---------------6--|
A|-----8-8--87---646-------------4h66---65---44----4------|
E|------------------6-6-----------------------------------|

3:01
G|--/65----|
D|-----6\--|
A|---------|
E|---------|
Advertisements

Leave a Reply

Fill in your details below or click an icon to log in:

WordPress.com Logo

You are commenting using your WordPress.com account. Log Out / Change )

Twitter picture

You are commenting using your Twitter account. Log Out / Change )

Facebook photo

You are commenting using your Facebook account. Log Out / Change )

Google+ photo

You are commenting using your Google+ account. Log Out / Change )

Connecting to %s