Kando≠Reduction – Aki Akane (Bass tab)

Difficulty (1-5): 3
# Strings: 5
Tuning: BEADG (Standard)
Reference: http://www.youtube.com/watch?v=THU_hPhxzrY

0:20
G|------------------------------------------------------------------------|
D|-------------------------------------------------------4-64--64---------|
A|--6666666-22222-4--6666666-2222-4--6666666-22222-4--646----6---654-444--|
E|------------------------------------------------------------------------|
B|------------------------------------------------------------------------|

G|------------------------------------------------|
D|------------------------------------------------|
A|--66-66-66-66--66-66-66-66-642~ ----------------|
E|----------------------------------4~ -666-4666--|
B|------------------------------------------------|

G|-------------------------------------------------|
D|-------------------------------------------------|
A|--66-66-66-66--66-66-66-66-642--------666-46666--|
E|-------------------------------4-----6-----------|
B|---------------------------------4~ -------------|

G|--------------------------|
D|--------------------------|
A|--2--4--6~ --2~ -1-(x13)--|
E|--------------------------|
B|--------------------------|

0:58
G|-----------------------------------|
D|-----------------------------------|
A|--6-(x15)-4-(x15)-2-(x15)-1-(x15)--|
E|-----------------------------------|
B|-----------------------------------|

G|----------------------------------------------|
D|----------------------------------------------|
A|--6-(x15)-4-(x15)---------------22-44-66-666--|
E|------------------4-(x7)-6-(x7)---------------|
B|----------------------------------------------|

G|------------------------------------------------------------------------|
D|-------------------------------------------------------4-64--64---------|
A|--6666666-22222-4--6666666-2222-4--6666666-22222-4--646----6---654-444--|
E|------------------------------------------------------------------------|
B|------------------------------------------------------------------------|

G|------------------------------------------------|
D|------------------------------------------------|
A|--66-66-66-66--66-66-66-66-642~ ----------------|
E|----------------------------------4~ -666-4666--|
B|------------------------------------------------|

G|-------------------------------------------------|
D|-------------------------------------------------|
A|--66-66-66-66--66-66-66-66-642--------666-46666--|
E|-------------------------------4-----6-----------|
B|---------------------------------4~ -------------|

2:02
G|-----------------------|
D|-----------------------|
A|--2-(x15)--------------|
E|-----------6-66666666--|
B|-----------------------|

G|-----------------------------------|
D|-----------------------------------|
A|--6-(x15)-4-(x15)-2-(x15)-1-(x15)--|
E|-----------------------------------|
B|-----------------------------------|

G|----------------------------------------------|
D|----------------------------------------------|
A|--6-(x15)-4-(x15)---------------22-44-66-666--|
E|------------------4-(x7)-6-(x7)---------------|
B|----------------------------------------------|

2:36
G|-------------------------------------------------------------------------|
D|-------------------------------------------------------------------------|
A|-------------------------------------------------------------------------|
E|-------5b-------5b-------5b-------5b-------5b-------5b-------5-77779999--|
B|--44-64----44-64----44-64----44-64----44-64----44-64----44-64------------|

G|-------------------------------------------------|
D|-------------------------------------------------|
A|--2--4--6~ --2--4--6~ --2--4--6~ --2~ --1-(x14)--|
E|-------------------------------------------------|
B|-------------------------------------------------|

G|---------------------------------------|
D|---------------------------------------|
A|--6---6-6-6-4-(x14)---2-(x15)-1-(x15)--|
E|---------------------------------------|
B|---------------------------------------|

G|----------------------------------------------------------|
D|----------------------------------------------------------|
A|--6-(x15)-4-(x15)---------------22-44-22-44-22-44-6-6666--|
E|------------------4-(x7)-6-(x7)---------------------------|
B|----------------------------------------------------------|

G|-----------------------------------|
D|-----------------------------------|
A|--6666666-22222-4--6666666-2222-4--|
E|-----------------------------------|
B|-----------------------------------|

G|--------------------------------------|
D|-----4-64--64---------4-64--64--------|
A|--646----6---654---646----6---654-----|
E|----------------6----------------666--|
B|--------------------------------------|
Advertisements

Leave a Reply

Fill in your details below or click an icon to log in:

WordPress.com Logo

You are commenting using your WordPress.com account. Log Out / Change )

Twitter picture

You are commenting using your Twitter account. Log Out / Change )

Facebook photo

You are commenting using your Facebook account. Log Out / Change )

Google+ photo

You are commenting using your Google+ account. Log Out / Change )

Connecting to %s