Kiss!Kiss!Kiss! – Buono! (Bass tab)

Difficulty (1-5): 3
# Strings: 4
Tuning: EADG (Standard)
Reference: http://www.youtube.com/watch?v=j8vLK-x3uRc

0:01
G|---------------------------------------------------------------|
D|---------------------------------------------------------------|
A|-------------------------3-33-33--3-33-33--5-55-55--5-55-55-1--|
E|--12\--1-11-11--1-11-11----------------------------------------|

G|---------------------------------------------------------------------|
D|---------------------------------------------------------------------|
A|-------------------------3-33-33--3-33-33--5-55-55--5-55-55--1-1-13--|
E|--12\--1-11-11--1-11-11----------------------------------------------|

G|--------------------------------------------------------------------------|
D|--------------------------------------------------------------------------|
A|--------------------3-33-33--3-33-33--5-55-55--5-55-55--1-11-11--1-11-11--|
E|--1-11-11--1-11-11--------------------------------------------------------|

G|--------------------------------------------------------------------------|
D|--------------------------------------------------------------------------|
A|--------------------3-33-33--3-33-33--5-55-55--5-55-55--1-11-11--1-11-11--|
E|--1-11-11--1-11-11--------------------------------------------------------|

G|---------------------------------------------------------------|
D|---------------------------------------------------------------|
A|---------123-333-33--------5-55-55--5-55-55--1-11-11--1-11-11--|
E|--1/15\-------------1/15\--------------------------------------|

G|---------------------------------------------------------------|
D|---------------------------------------------------------------|
A|---------123-333-33--------5-55-55--5-55-55--1-11-11--1-11-11--|
E|--1/15\-------------1/15\--------------------------------------|

0:46
G|--------------------------------------|
D|--------------------------------------|
A|-----35-------57-------78-----57-35---|
E|--3-3---5-035---53--6-6----5-5-----5--|

G|--------------------------------|
D|--------------------------------|
A|-----35---7-5----6~ --653---67--|
E|--3-3---5-----5-5----6----------|

G|----------------------------------------------------------------|
D|----------------------------------------------------------------|
A|--------------------3-33-33--3-33-33--5-55-55--5-55-55--1-1-1---|
E|--1-11-11--1-11-11-------------------------------------------3--|

G|----------------------------------------------------------------|
D|----------------------------------------------------------------|
A|--------------------3-33-33--3-33-33--5-55-55--5-55-55--1-1-1---|
E|--1-11-11--1-11-11-------------------------------------------3--|

G|-------------------------------|
D|-------------------------------|
A|--------------------1-11-11-3--|
E|--3-33-33--5-55-55-------------|

G|----------------------------------------------------------------|
D|----------------------------------------------------------------|
A|--------------------3-33-33--3-33-33--5-55-55--5-55-55--1-1-13--|
E|--1-11-11--1-11-11----------------------------------------------|

1:40
G|---------------------------------------------------------------|
D|---------------------------------------------------------------|
A|---------123-333-33--------5-55-55--5-55-55--1-11-11--1-11-11--|
E|--1/15\-------------1/15\--------------------------------------|

G|---------------------------------------------------------------|
D|---------------------------------------------------------------|
A|---------123-333-33--------5-55-55--5-55-55--1-11-11--1-11-11--|
E|--1/15\-------------1/15\--------------------------------------|

G|----------------------------------|
D|----------------------------------|
A|------5-----7--------875---75-----|
E|--3-33---5-5-5--56-6-----55---75--|

G|------------------------------|
D|------------7-----------------|
A|------5---57-75--6--653---67--|
E|--3-33---5-----5---6----------|

G|----------------------------------------------------------------|
D|----------------------------------------------------------------|
A|--------------------3-33-33--3-33-33--5-55-55--5-55-55--1-1-1---|
E|--1-11-11--1-11-11-------------------------------------------3--|

G|----------------------------------------------------------------|
D|----------------------------------------------------------------|
A|--------------------3-33-33--3-33-33--5-55-55--5-55-55--1-1-1---|
E|--1-11-11--1-11-11-------------------------------------------3--|

G|--------------------------------------------|
D|--------------------------------------------|
A|--------------------1-11-11-3---------------|
E|--3-33-33--5-55-55-------------1~ ---/13~ --|

2:35
G|--------------------------------------------------------------|
D|--------------------------------------------------------------|
A|--1-11-11--1-11-11----------875-------------------------------|
E|--------------------5-55-55----8--3-33-33--3-33-33---1-3-5-1--|

G|------------------------------------------------------------------|
D|------------------------------------------------------------------|
A|--1-11-11--1-11-11------------------------------------------------|
E|--------------------5-55-55--5-55-55--3-33-33--3-33-33---1-3-5-1--|

G|---------------------------------------------------------------|
D|---------------------------------------------------------------|
A|--1-11-11--1-11-11---------------------------------------------|
E|--------------------5-55-55--5-55-55--33/12\-33/12\---1-3-5-1--|

G|------------------------------------------------------------------------|
D|--------------------------------------66-6-666-6-66-6--88-8-888-88-888--|
A|--1-11-11--1-11-11------------------------------------------------------|
E|--------------------5-55-55--5-55-55------------------------------------|

3:07
G|------------------------------------|
D|-------------7----------------------|
A|-----35-----7-75------875----75-----|
E|--3-3----5------5--6-6-----55---75--|

G|-------------------------------------|
D|-------------------------------------|
A|-----35------7----6--6-653-------67--|
E|--3-3----5-55-5--5--6-6--------------|

G|-----------------------------------------------------------------|
D|-----------------------------------------------------------------|
A|--------------------3-33-33--3--------5-55-55--3/5-5-55--1-1-1---|
E|--1-11-11--1-11-11-------------1-3-5--------------------------3--|

G|-----------------------------------------------------------------|
D|-----------------------------------------------------------------|
A|--------------------3-33-33--3-33-33--5-55-55--3/5-5-55--1-1-1---|
E|--1-11-11--1-11-11--------------------------------------------3--|

G|-------------------------------|
D|-------------------------------|
A|--------------------1-11-11-3--|
E|--3-33-33--5-55-55-------------|

G|-------------------------------------------------------------------|
D|-------------------------------------------------------------------|
A|--------------------3-33-33--3-33-33--5-55-55--3/5-5-55--1--1--1---|
E|--1-11-11--1-11-11----------------------------------------------3--|

G|---------------------------------------------------------|
D|---------------------------------------------------------|
A|--------------------3-33-33--3-33-33--5-55-55--3/5-5-55--|
E|--1-11-11--1-11-11---------------------------------------|

G|---------------------------|
D|---------------------------|
A|--1--1--1----1--1--1-------|
E|---------3----------3-1~ --|
Advertisements

Leave a Reply

Fill in your details below or click an icon to log in:

WordPress.com Logo

You are commenting using your WordPress.com account. Log Out / Change )

Twitter picture

You are commenting using your Twitter account. Log Out / Change )

Facebook photo

You are commenting using your Facebook account. Log Out / Change )

Google+ photo

You are commenting using your Google+ account. Log Out / Change )

Connecting to %s