A Tragic Instinct – Coldrain (Bass tab)

Difficulty (1-5): 3
# Strings: 5
Tuning: BEADG (Standard)
Reference: http://www.youtube.com/watch?v=W4zhrTjjQtM

0:30
G|------------------------------------------|
D|------------------------------------------|
A|----------------2-22----------------2-22--|
E|------5-55----------------5-55------------|
B|--2-2-------2-2-------2-2-------2-2-------|

G|------------------------------------------|
D|------------------------------------------|
A|----------------2-22----------------2-22--|
E|------5-55----------------5-55------------|
B|--2-2-------2-2-------2-2-------2-2-------|

G|----------------------------------|
D|----------------------------------|
A|----------------------------------|
E|---------4-4-555---------4-4-555--|
B|--22-2-2----------22-2-2----------|

G|----------------------------------|
D|----------------------------------|
A|----------------------------------|
E|---------4-4-555---------4-4-555--|
B|--22-2-2----------22-2-2----------|

0:59
G|----------------------------------------------|
D|----------------------------------------------|
A|------------------2222------------------2222--|
E|-------5555------------------5555-------------|
B|--22-22------22-22------22-22------22-22------|

G|----------------------------------|
D|----------------------------------|
A|----------------------------------|
E|---------4-4-555---------4-4-555--|
B|--22-2-2----------22-2-2----------|

G|----------------------------------|
D|----------------------------------|
A|----------------------------------|
E|---------4-4-555---------4-4-555--|
B|--22-2-2----------22-2-2----------|

G|--------------------------------------|
D|--------------------------------------|
A|--------------------------------------|
E|----------44455555----------44455555--|
B|--22222222----------22222222----------|

G|------------------------------------------|
D|------------------------------------------|
A|------------------------------------------|
E|----------44455555----------44-44-444-44--|
B|--22222222----------22222222--------------|

1:34
G|---------------------------------------------|
D|------4/6--------4/6--------2/4--------2/4---|
A|--4-4----4---4-4----4---2-2----2---2-2----2--|
E|---------------------------------------------|
B|---------------------------------------------|

G|------------------------------------------------|
D|------------------------------------------------|
A|------5/7--------5/7--------4/6-----------------|
E|--5-5----5---5-5----5---4-4----4--44-44-444-44--|
B|------------------------------------------------|

G|-----------------4/6-4--------------------------|
D|------4/6-------------6\-------2/4--------2/4---|
A|--4-4----4---4-4-----------2-2----2---2-2----2--|
E|------------------------------------------------|
B|------------------------------------------------|

G|----------------------------------------------------|
D|-----------------7/9-7------------------------------|
A|------5/7------7------7\-------4/6------------------|
E|--5-5----5---5-------------4-4----4---44-44-444-44--|
B|----------------------------------------------------|

G|------------------------------------------|
D|------------------------------------------|
A|---------22-22---------------------22-22--|
E|--55-55----------------------55-55--------|
B|---------------22-22--22-22---------------|

G|--------------------------------------|
D|--------------------------------------|
A|--------------------------------------|
E|----------44455555----------44455555--|
B|--22222222----------22222222----------|

G|--------------------------------------|
D|--------------------------------------|
A|--------------------------------------|
E|----------44455555------------444444--|
B|--22222222----------22222222----------|

2:33
G|-------------------------------|
D|-------14---13/16-14-----------|
A|--/12----12---------12---------|
E|------------------------4-44\--|
B|-------------------------------|

G|--------------------------------------------|
D|--------------------------------------------|
A|----------2-(x16)------------------------2--|
E|------------------5-(x16)-4-(x8)-44444-24---|
B|--2-(x16)-----------------------------------|

G|-----------------------------------------------------------------------|
D|-----------------------------------------------------------------------|
A|------------------2-(x8)-22222024--------------------------------------|
E|----------------------------------5-(x8)-55555252--4-(x8)-44-44-44444--|
B|--2-(x8)-22222245------------------------------------------------------|

G|------------------------------------------|
D|------------------------------------------|
A|----------------2-22----------------2-22--|
E|------5-55----------------5-55------------|
B|--2-2-------2-2-------2-2-------2-2-------|

G|------------------------------------------|
D|------------------------------------------|
A|----------------2-22----------------2-22--|
E|------5-55----------------5-55------------|
B|--2-2-------2-2-------2-2-------2-2-------|

G|---------------------|
D|---------------------|
A|----------------4~ --|
E|--44-44-44-4444------|
B|---------------------|
Advertisements

Leave a Reply

Fill in your details below or click an icon to log in:

WordPress.com Logo

You are commenting using your WordPress.com account. Log Out / Change )

Twitter picture

You are commenting using your Twitter account. Log Out / Change )

Facebook photo

You are commenting using your Facebook account. Log Out / Change )

Google+ photo

You are commenting using your Google+ account. Log Out / Change )

Connecting to %s