Dan!Dan!Dan! – Yum!Yum!ORANGE (Bass tab)

Difficulty (1-5): 4
# Strings: 4
Tuning: EADG (Standard)
Reference: http://www.youtube.com/watch?v=wIYe2h_9xbM

0:01
G|------------------------------------|
D|------------------------------------|
A|------------------------------------|
E|--2-2-222-555-555--2-2-222-555-555--|

G|-------------------------------------|
D|-------------------------------------|
A|---------------------------5555-7-7--|
E|--2-2-222-555-555--7-7-777-----------|

G|------------------------------------------------------|
D|------------------33-66-33----------------------------|
A|-----11-44-11--44-----------22-11--------44-22-11-----|
E|--22------------------------------44-22-----------44--|

G|------------------------------------------------------|
D|------------------33-66-33----------------------------|
A|-----11-44-11--44-----------22-11--------44-22-11-----|
E|--22------------------------------44-22-----------44--|

0:22
G|-------------------------------------------33-66-33--|
D|--44-33-11--------------------33-66-33--44-----------|
A|-----------44-22-11-22-33--44------------------------|
E|-----------------------------------------------------|

G|----------------------------------------------44-----|
D|--44-33-11--------------------33-66-33-----33----33--|
A|-----------44-22-11-22-33--44-----------44-----------|
E|-----------------------------------------------------|

G|-------------------------------------------33-66-33--|
D|--44-33-11--------------------33-66-33--44-----------|
A|-----------44-22-11-22-33--44------------------------|
E|-----------------------------------------------------|

G|----------------------------------------------4--4---|
D|--44-33-11--------------------33-66-33-----33--3--3--|
A|-----------44-22-11-22-33--44-----------44-----------|
E|-----------------------------------------------------|

G|--------33--------------------------------------------|
D|--11-44----44------------------11-44-11---------------|
A|------------------33-44-66--22--------------11-22-44--|
E|---------------44------------------------22-----------|

G|--------33-----------------------------------|
D|--11-44----44--------------------------------|
A|------------------33-44-66--2-2-222-444-444--|
E|---------------44----------------------------|

G|-----------------------8/9-999--|
D|--------------66-77-99----------|
A|--5-5-555--77-------------------|
E|--------------------------------|

0:56
G|---------------------------------------------------------|
D|---------------------------------------------88-1111-88--|
A|--99-88-66--------------------88-1111-88--99-------------|
E|-----------99-77-66-77-88--99----------------------------|

G|---------------------------------------------------------|
D|---------------------------------------------------------|
A|--99-88-66--------------------88-1111-88--99-88-99-1111--|
E|-----------99-77-66-77-88--99----------------------------|

G|---------------------------------------------------------|
D|---------------------------------------------88-1111-88--|
A|--99-88-66--------------------88-1111-88--99-------------|
E|-----------99-77-66-77-88--99----------------------------|

G|---------------------------------------------------------|
D|---------------------------------------------------------|
A|--99-88-66--------------------88-1111-88--99-88-99-1111--|
E|-----------99-77-66-77-88--99----------------------------|

G|------------------------------------------------------|
D|------------------33-66-33----------------------------|
A|-----11-44-11--44-----------22-11--------44-22-11-----|
E|--22------------------------------44-22-----------44--|

G|------------------------------------------------------|
D|------------------33-66-33----------------------------|
A|-----11-44-11--44-----------22-11--------44-22-11-----|
E|--22------------------------------44-22-----------44--|

1:25
G|-------------------------------------------33-66-33--|
D|--44-33-11--------------------33-66-33--44-----------|
A|-----------44-22-11-22-33--44------------------------|
E|-----------------------------------------------------|

G|----------------------------------------------44-----|
D|--44-33-11--------------------33-66-33-----33----33--|
A|-----------44-22-11-22-33--44-----------44-----------|
E|-----------------------------------------------------|

G|-------------------------------------------33-66-33--|
D|--44-33-11--------------------33-66-33--44-----------|
A|-----------44-22-11-22-33--44------------------------|
E|-----------------------------------------------------|

G|----------------------------------------------4--4---|
D|--44-33-11--------------------33-66-33-----33--3--3--|
A|-----------44-22-11-22-33--44-----------44-----------|
E|-----------------------------------------------------|

G|--------33--------------------------------------------|
D|--11-44----44------------------11-44-11---------------|
A|------------------33-44-66--22--------------11-22-44--|
E|---------------44------------------------22-----------|

G|--------33-----------------------------------|
D|--11-44----44--------------------------------|
A|------------------33-44-66--2-2-222-444-444--|
E|---------------44----------------------------|

G|-----------------------8/9-999--|
D|--------------66-77-99----------|
A|--5-5-555--77-------------------|
E|--------------------------------|

1:58
G|---------------------------------------------------------|
D|---------------------------------------------88-1111-88--|
A|--99-88-66--------------------88-1111-88--99-------------|
E|-----------99-77-66-77-88--99----------------------------|

G|---------------------------------------------------------|
D|---------------------------------------------------------|
A|--99-88-66--------------------88-1111-88--99-88-99-1111--|
E|-----------99-77-66-77-88--99----------------------------|

G|---------------------------------------------------------|
D|---------------------------------------------88-1111-88--|
A|--99-88-66--------------------88-1111-88--99-------------|
E|-----------99-77-66-77-88--99----------------------------|

G|---------------------------------------------------------|
D|---------------------------------------------------------|
A|--99-88-66--------------------88-1111-88--99-88-99-1111--|
E|-----------99-77-66-77-88--99----------------------------|

G|-------------------------------------|
D|-------------------------------------|
A|--------------------------------5-7--|
E|--2--5-5---2--5-5---2--5-5---7-------|

2:30
G|------------------------------------------------------|
D|------------------33-66-33----------------------------|
A|-----11-44-11--44-----------22-11--------44-22-11-----|
E|--22------------------------------44-22-----------44--|

G|------------------------------------------------------|
D|------------------33-66-33----------------------------|
A|-----11-44-11--44-----------22-11--------44-22-11-----|
E|--22------------------------------44-22-----------44--|

G|------------------------------------------------------|
D|------------------33-66-33----------------------------|
A|-----11-44-11--44-----------22-11--------44-22-11-----|
E|--22------------------------------44-22-----------44--|

G|------------------------------------------------------|
D|------------------33-66-33----------------------------|
A|-----11-44-11--44-----------22-11--------44-22-11-----|
E|--22------------------------------44-22-----------44--|

G|--------------------------------------------|
D|--------------44-55-7--------------66-77-9--|
A|--5-555555-55----------7-777777-77----------|
E|--------------------------------------------|

G|--------------------------------------------|
D|--------------44-55-7--------------66-77-9--|
A|--5-555555-55----------7-777777-77----------|
E|--------------------------------------------|

3:19
G|---------------------------------------------------------|
D|---------------------------------------------88-1111-88--|
A|--99-88-66--------------------88-1111-88--99-------------|
E|-----------99-77-66-77-88--99----------------------------|

G|---------------------------------------------------------|
D|---------------------------------------------------------|
A|--99-88-66--------------------88-1111-88--99-88-99-1111--|
E|-----------99-77-66-77-88--99----------------------------|

G|---------------------------------------|
D|---------------------------------------|
A|-----------3-333333-5-555555-----------|
E|--3-333333-------------------3-333333--|

G|---------------------------------------|
D|---------------------------------------|
A|-----------3-333333-5-555555-----------|
E|--3-333333-------------------3-333333--|

G|--------------------------------------------44-55-77--|
D|------------------22-33-55-----44-55-77--55-----------|
A|-----22-33-55--33-----------55------------------------|
E|--33--------------------------------------------------|

G|--------------------------------------------44-55-77--|
D|------------------22-33-55-----44-55-77--55-----------|
A|-----22-33-55--33-----------55------------------------|
E|--33--------------------------------------------------|

3:47
G|------------------------------------------------------|
D|------------------44-77-44----------------------------|
A|-----22-55-22--55-----------33-22--------55-33-22-----|
E|--33------------------------------55-33-----------55--|

G|------------------------------------------------------|
D|------------------44-77-44----------------------------|
A|-----22-55-22--55-----------33-22--------55-33-22-----|
E|--33------------------------------55-33-----------55--|

G|------------------------------------------------------|
D|------------------44-77-44----------------------------|
A|-----22-55-22--55-----------33-22--------55-33-22-----|
E|--33------------------------------55-33-----------55--|

G|------------------------------------------------------|
D|------------------44-77-44----------------------------|
A|-----22-55-22--55-----------33-22--------55-33-22-----|
E|--33------------------------------55-33-----------55--|

G|----------------------------------------|
D|----------------------------------------|
A|--------------------------------6--8-8--|
E|--3--6-6---3--6-6---3--6-6---8----------|
Advertisements

Leave a Reply

Fill in your details below or click an icon to log in:

WordPress.com Logo

You are commenting using your WordPress.com account. Log Out / Change )

Twitter picture

You are commenting using your Twitter account. Log Out / Change )

Facebook photo

You are commenting using your Facebook account. Log Out / Change )

Google+ photo

You are commenting using your Google+ account. Log Out / Change )

Connecting to %s