Zero Sympathy – High and Mighty Color (Bass tab)

Difficulty (1-5): 4
# Strings: 4
Tuning: DADG (Drop D)
Reference: http://www.youtube.com/watch?v=ckSIw_gCOWo

0:01
    SSPSPS    SSPSPS    SSPSPS   SS SS
G|--------------------------------------|
D|----3-3-------3-3-------3-3-----------|
A|-------3h5-------3h5-------3h5--------|
D|--00-x------00-x------00-x-----55-33--|

    SSPSPS    SSPSPS    SSPSPS    SSP SSP
G|----------------------------------3---5--|
D|----3-3-------3-3-------3-3--------------|
A|-------3h5-------3h5-------3h5--11--33---|
D|--00-x------00-x------00-x---------------|

    SSPSPS    SSPSPS    SSPSPS   SS SS
G|--------------------------------------|
D|----3-3-------3-3-------3-3-----------|
A|-------3h5-------3h5-------3h5--------|
D|--00-x------00-x------00-x-----55-33--|

    SSPSPS    SSPSPS    SSPSPS    SSP SSP
G|----------------------------------3---5--|
D|----3-3-------3-3-------3-3--------------|
A|-------3h5-------3h5-------3h5--11--33---|
D|--00-x------00-x------00-x---------------|

    SSPSPS    SSPSPS    SSPSPS   SS SS
G|--------------------------------------|
D|----3-3-------3-3-------3-3-----------|
A|-------3h5-------3h5-------3h5--------|
D|--00-x------00-x------00-x-----55-33--|

    SSPSPS    SSPSPS    SSPSPS    SSP SSP
G|----------------------------------3---5--|
D|----3-3-------3-3-------3-3--------------|
A|-------3h5-------3h5-------3h5--11--33---|
D|--00-x------00-x------00-x---------------|

    SSPSPS    SSPSPS    SSPSPS   SS SS
G|--------------------------------------|
D|----3-3-------3-3-------3-3-----------|
A|-------3h5-------3h5-------3h5--------|
D|--00-x------00-x------00-x-----55-33--|

    SSPSPS    SSPSPS    SSPSPS    SSP SSP
G|----------------------------------3---5--|
D|----3-3-------3-3-------3-3--------------|
A|-------3h5-------3h5-------3h5--11--33---|
D|--00-x------00-x------00-x---------------|

0:26
    S  SS  S  SS SS  S  SS  S  SSP SSP
G|-------------------------------3---5--|
D|--------------------------------------|
A|-----------------------------11--33---|
D|--0--00--0--33-22--0--00--0-----------|

    SSPSPS    SSPSPS    SSPSPS   SS SS
G|--------------------------------------|
D|----3-3-------3-3-------3-3-----------|
A|-------3h5-------3h5-------3h5--------|
D|--00-x------00-x------00-x-----55-33--|

    SSPSPS    SSPSPS    SSPSPS    SSP SSP
G|----------------------------------3---5--|
D|----3-3-------3-3-------3-3--------------|
A|-------3h5-------3h5-------3h5--11--33---|
D|--00-x------00-x------00-x---------------|

    S  SS  S  SS SS  S  SS  S  SSP SSP
G|-------------------------------3---5--|
D|--------------------------------------|
A|-----------------------------11--33---|
D|--0--00--0--33-22--0--00--0-----------|

    SSPSPS    SSPSPS    SSPSPS   SS SS
G|--------------------------------------|
D|----3-3-------3-3-------3-3-----------|
A|-------3h5-------3h5-------3h5--------|
D|--00-x------00-x------00-x-----55-33--|

    SSPSPS    SSPSPS    SSPSPS    SSP SSP
G|----------------------------------3---5--|
D|----3-3-------3-3-------3-3--------------|
A|-------3h5-------3h5-------3h5--11--33---|
D|--00-x------00-x------00-x---------------|

1:05
G|--------------------------------------|
D|--------------------------------------|
A|--1-11-11--1-11-11--3-33-33--3-33-33--|
D|--------------------------------------|

    SSPSPS    SSPSPS    SSPSPS   SS SS
G|--------------------------------------|
D|----3-3-------3-3-------3-3-----------|
A|-------3h5-------3h5-------3h5--------|
D|--00-x------00-x------00-x-----55-33--|

G|----------------------------------------------------------------------|
D|----------------------------------------------------------------------|
A|--1-11-11--1-11-11--0-00-00--0-00-00--1-11-11--1-11-11--3-33-33-4444--|
D|----------------------------------------------------------------------|

    SSPSPS    SSPSPS    SSPSPS   SS SS
G|--------------------------------------|
D|----3-3-------3-3-------3-3-----------|
A|-------3h5-------3h5-------3h5--------|
D|--00-x------00-x------00-x-----55-33--|

    SSPSPS    SSPSPS    SSPSPS    SSP SSP
G|----------------------------------3---5--|
D|----3-3-------3-3-------3-3--------------|
A|-------3h5-------3h5-------3h5--11--33---|
D|--00-x------00-x------00-x---------------|

    SSPSPS    SSPSPS    SSPSPS   SS SS
G|--------------------------------------|
D|----3-3-------3-3-------3-3-----------|
A|-------3h5-------3h5-------3h5--------|
D|--00-x------00-x------00-x-----55-33--|

    SSPSPS    SSPSPS    SSPSPS    SSP SSP
G|----------------------------------3---5--|
D|----3-3-------3-3-------3-3--------------|
A|-------3h5-------3h5-------3h5--11--33---|
D|--00-x------00-x------00-x---------------|

1:31
G|---------------------------------------|
D|---------------------------------------|
A|--0--00--33-0--00--33-0--00--33-0--00--|
D|---------------------------------------|

     S    SSPSPS    SSPSPS    SSPSPS   SS SS
G|--------------------------------------------|
D|----------3-3-------3-3-------3-3-----------|
A|-------------3h5-------3h5-------3h5--------|
D|--15\---00-x------00-x------00-x-----55-33--|

    SSPSPS    SSPSPS    SSPSPS    SSP SSP
G|----------------------------------3---5--|
D|----3-3-------3-3-------3-3--------------|
A|-------3h5-------3h5-------3h5--11--33---|
D|--00-x------00-x------00-x---------------|

    SSPSPS    SSPSPS    SSPSPS   SS SS
G|--------------------------------------|
D|----3-3-------3-3-------3-3-----------|
A|-------3h5-------3h5-------3h5--------|
D|--00-x------00-x------00-x-----55-33--|

    SSPSPS    SSPSPS    SSPSPS    SSP SSP
G|----------------------------------3---5--|
D|----3-3-------3-3-------3-3--------------|
A|-------3h5-------3h5-------3h5--11--33---|
D|--00-x------00-x------00-x---------------|

This part is played faster than in the reference video (Timing mistake):
---------------------------------------------------------------------------|
1:57                                                                       |
    SSPSSP   S S P S S P S P   SSPSSP   SP                                 |
G|----7--5h7-----12----10--12----7--5h7--5\--|                             |
D|-------------------------------------------|                             |
A|--55-xx----1010--1010--10----55-xx----3----|                             |
D|-------------------------------------------|                             |
                                                                           |
---------------------------------------------------------------------------|

G|--------------------------------------|
D|--------------------------------------|
A|--1-11-11--1-11-11--3-33-33--3-33-33--|
D|--------------------------------------|

    SSPSPS    SSPSPS    SSPSPS   SS SS
G|--------------------------------------|
D|----3-3-------3-3-------3-3-----------|
A|-------3h5-------3h5-------3h5--------|
D|--00-x------00-x------00-x-----55-33--|

G|----------------------------------------------------------------------|
D|----------------------------------------------------------------------|
A|--1-11-11--1-11-11--0-00-00--0-00-00--1-11-11--1-11-11--3-33-33-4444--|
D|----------------------------------------------------------------------|

2:13
    SSPSPS    SSPSPS    SSPSPS   SS SS
G|--------------------------------------|
D|----3-3-------3-3-------3-3-----------|
A|-------3h5-------3h5-------3h5--------|
D|--00-x------00-x------00-x-----55-33--|

    SSPSPS    SSPSPS    SSPSPS    SSP SSP
G|----------------------------------3---5--|
D|----3-3-------3-3-------3-3--------------|
A|-------3h5-------3h5-------3h5--11--33---|
D|--00-x------00-x------00-x---------------|

    SSPSPS    SSPSPS    SSPSPS   SS SS
G|--------------------------------------|
D|----3-3-------3-3-------3-3-----------|
A|-------3h5-------3h5-------3h5--------|
D|--00-x------00-x------00-x-----55-33--|

    SSPSPS    SSPSPS    SSPSPS    SSP SSP
G|----------------------------------3---5--|
D|----3-3-------3-3-------3-3--------------|
A|-------3h5-------3h5-------3h5--11--33---|
D|--00-x------00-x------00-x---------------|

    SSPSPS    SSPSPS    SSPSPS   SS SS
G|--------------------------------------|
D|----3-3-------3-3-------3-3-----------|
A|-------3h5-------3h5-------3h5--------|
D|--00-x------00-x------00-x-----55-33--|

    SSPSPS    SSPSPS    SSPSPS    SSP SSP
G|----------------------------------3---5--|
D|----3-3-------3-3-------3-3--------------|
A|-------3h5-------3h5-------3h5--11--33---|
D|--00-x------00-x------00-x---------------|

    SSPSPS    SSPSPS    SSPSPS   SS SS
G|--------------------------------------|
D|----3-3-------3-3-------3-3-----------|
A|-------3h5-------3h5-------3h5--------|
D|--00-x------00-x------00-x-----55-33--|

    SSPSPS    SSPSPS    SSPSPS    SSP SSP  S
G|----------------------------------3---5-----|
D|----3-3-------3-3-------3-3-----------------|
A|-------3h5-------3h5-------3h5--11--33---0--|
D|--00-x------00-x------00-x------------------|
Advertisements

Leave a Reply

Fill in your details below or click an icon to log in:

WordPress.com Logo

You are commenting using your WordPress.com account. Log Out / Change )

Twitter picture

You are commenting using your Twitter account. Log Out / Change )

Facebook photo

You are commenting using your Facebook account. Log Out / Change )

Google+ photo

You are commenting using your Google+ account. Log Out / Change )

Connecting to %s