That Thing You Do – Shakalabbits (Bass tab)

Difficulty (1-5): 3
# Strings: 4
Tuning: EADG (Standard)
Reference: http://www.youtube.com/watch?v=qn-6k_GIPXA

0:01
G|----------------6/8-6---------------------|
D|--/10-8-6--------------/10-8-6------------|
A|----------6-6/7----------------6-6/7-7/9--|
E|------------------------------------------|

G|----------------6/8-6----------6/8-8/9--|
D|--/10-8-6--------------/10-8-6----------|
A|----------6-6/7-------------------------|
E|----------------------------------------|

G|---------------------------------------------|
D|---------------------------------------------|
A|---------4-(x4)-6-(x4)--------4-(x4)-6-(x4)--|
E|--4-(x8)---------------4-(x8)----------------|

G|-------------------------------------|
D|-------------------------------------|
A|---------4-(x4)-6-(x4)-------444-64--|
E|--4-(x8)---------------4-------------|

0:22
G|---------------------------------------------|
D|---------------------------------------------|
A|---------4-(x4)-6-(x4)--------4-(x4)-6-(x4)--|
E|--4-(x8)---------------4-(x8)----------------|

G|-------------------------------------|
D|-------------------------------------|
A|---------1-1-11-4-444444--7777-6666--|
E|--1-1-11-----------------------------|

G|---------------------------------------------|
D|---------------------------------------------|
A|---------4-(x4)-6-(x4)--------4-(x4)-6-(x4)--|
E|--4-(x8)---------------4-(x8)----------------|

G|-------------------------------------|
D|-------------------------------------|
A|---------1-1-11-4-444444--6666-4444--|
E|--1-1-11-----------------------------|

G|---------------------------------------------------------|
D|----------------/6-66-4-44-3-33-2-22---------------------|
A|---------1-(x8)--------------------------------4-444444--|
E|--1-(x8)-----------------------------4-444444------------|

G|----------------6/8-6---------------------|
D|--/10-8-6--------------/10-8-6------------|
A|----------6-6/7----------------6-6/7-7/9--|
E|------------------------------------------|

0:56
G|------------------------------------------|
D|--------66---66---88--------66---66---88--|
A|----4466---44---66------4466---44---66----|
E|--44------------------44------------------|

G|-------------------------------------|
D|-------------------------------------|
A|---------1-1-11-4-444444--7777-6666--|
E|--1-1-11-----------------------------|

G|------------------------------------------|
D|--------66---66---88--------66---66---88--|
A|----4466---44---66------4466---44---66----|
E|--44------------------44------------------|

G|-------------------------------------|
D|-------------------------------------|
A|---------1-1-11-4-444444--6666-4444--|
E|--1-1-11-----------------------------|

G|---------------------------------------------------------|
D|----------------/6-66-4-44-3-33-2-22---------------------|
A|---------1-(x8)--------------------------------4-444444--|
E|--1-(x8)-----------------------------4-444444------------|

G|---------------------|
D|---------------------|
A|---------------------|
E|--4-444444--4444444--|

1:27
G|-------------------------------------|
D|------------3-333333--/6-6/8-10-8-6--|
A|--4-4-(X14)--------------------------|
E|-------------------------------------|

G|-----------------------------------|
D|-----------------------------------|
A|------------6-(x8)-7-(x8)--6-(x7)--|
E|--6-6-(x14)------------------------|

G|---------------------------------------------|
D|---------------------------------------------|
A|---------4-(x4)-6-(x4)--------4-(x4)-6-(x4)--|
E|--4-(x8)---------------4-(x8)----------------|

G|----------------------------------|
D|----------------------------------|
A|---------1-1-11-4-444444--7777-6--|
E|--1-1-11--------------------------|

1:52
G|--13\-----------------------------------------|
D|----------------------------------------------|
A|----------------1-111111--4-444444--6-666666--|
E|------1-111111--------------------------------|

G|------------------------------------------|
D|--------------------/6-66-4-44-3-33-2-22--|
A|-----------1-111-11-----------------------|
E|--1-111-11--------------------------------|

G|-----------------------------------------|
D|-----------------------------------------|
A|-----------4-444-444----------4-444-666--|
E|--4-444444-----------4-444444------------|

G|----------------------------------------------|
D|----------------------------------------------|
A|-----------6-666666-4-444444------------------|
E|--4-444444--------------------4~ -------/17\--|
Advertisements

Leave a Reply

Fill in your details below or click an icon to log in:

WordPress.com Logo

You are commenting using your WordPress.com account. Log Out / Change )

Twitter picture

You are commenting using your Twitter account. Log Out / Change )

Facebook photo

You are commenting using your Facebook account. Log Out / Change )

Google+ photo

You are commenting using your Google+ account. Log Out / Change )

Connecting to %s