That XX – G-Dragon (Bass tab)

Difficulty (1-5): 2
# Strings: 4
Tuning: EADG (Standard)
Reference: http://www.youtube.com/watch?v=IIRsDPlDdeY

0:01
         S       S        S       S          S       S        S       S
G|----7--x----7--x-----7--x----7--x-------6--x----6--x-----6--x----6--x--|
D|--5----x--5----x---5----x--5----x-----4----x--4----x---4----x--4----x--|
A|-----------------------------------------------------------------------|
E|-----------------------------------------------------------------------|

         S       S        S       S         S       S          S        S
G|---11--x---11--x----11--x---11--x------9--x----9--x------14--x----14--x--|
D|--9----x--9----x---9----x--9----x----7----x--7----x----12----x--12----x--|
A|-------------------------------------------------------------------------|
E|-------------------------------------------------------------------------|

         S       S        S       S          S       S        S       S
G|----7--x----7--x-----7--x----7--x-------6--x----6--x-----6--x----6--x--|
D|--5----x--5----x---5----x--5----x-----4----x--4----x---4----x--4----x--|
A|-----------------------------------------------------------------------|
E|-----------------------------------------------------------------------|

         S       S        S       S         S       S          S        S
G|---11--x---11--x----11--x---11--x------9--x----9--x------14--x----14--x--|
D|--9----x--9----x---9----x--9----x----7----x--7----x----12----x--12----x--|
A|-------------------------------------------------------------------------|
E|-------------------------------------------------------------------------|

        S      S      S      S      S       S       S     S
G|------x------x------x------x------x----7--x----7--x-----x-----|
D|--22--x--22--x--44--x--44--x--55--x--5----x--5----x--5--x--4--|
A|--------------------------------------------------------------|
E|--------------------------------------------------------------|

        S      S      S      S
G|------x------x------x------x------7-77-77--|
D|--22--x--22--x--44--x--44--x--45-----------|
A|-------------------------------------------|
E|-------------------------------------------|

0:49
         S       S        S               S       S        S
G|----7--x----7--x-----6--x----6------11--x---11--x-----9--x----97----|
D|--5----x--5----x---4----x--4---4/--9----x--9----x---7----x--7---97--|
A|--------------------------------------------------------------------|
E|--------------------------------------------------------------------|

         S       S        S               S       S
G|----7--x----7--x-----6--x----6------11--x---11--x-----|
D|--5----x--5----x---4----x--4---4/--9----x--9----x--7--|
A|------------------------------------------------------|
E|------------------------------------------------------|

         S       S        S       S          S       S        S       S
G|----7--x----7--x-----7--x----7--x-------6--x----6--x-----6--x----6--x--|
D|--5----x--5----x---5----x--5----x-----4----x--4----x---4----x--4----x--|
A|-----------------------------------------------------------------------|
E|-----------------------------------------------------------------------|

         S       S        S       S         S
G|---11--x---11--x----11--x---11--x------9--x--|
D|--9----x--9----x---9----x--9----x----7----x--|
A|---------------------------------------------|
E|---------------------------------------------|

1:23
         S       S        S       S          S       S        S       S
G|----7--x----7--x-----7--x----7--x-------6--x----6--x-----6--x----6--x--|
D|--5----x--5----x---5----x--5----x-----4----x--4----x---4----x--4----x--|
A|-----------------------------------------------------------------------|
E|-----------------------------------------------------------------------|

         S       S        S       S         S       S          S        S
G|---11--x---11--x----11--x---11--x------9--x----9--x------14--x----14--x--|
D|--9----x--9----x---9----x--9----x----7----x--7----x----12----x--12----x--|
A|-------------------------------------------------------------------------|
E|-------------------------------------------------------------------------|

        S      S      S      S      S       S       S     S
G|------x------x------x------x------x----7--x----7--x-----x-----|
D|--22--x--22--x--44--x--44--x--55--x--5----x--5----x--5--x--4--|
A|--------------------------------------------------------------|
E|--------------------------------------------------------------|

        S      S      S      S
G|------x------x------x------x------7-77-77--|
D|--22--x--22--x--44--x--44--x--45-----------|
A|-------------------------------------------|
E|-------------------------------------------|

1:55
         S       S        S               S       S        S
G|----7--x----7--x-----6--x----6------11--x---11--x-----9--x----97----|
D|--5----x--5----x---4----x--4---4/--9----x--9----x---7----x--7---97--|
A|--------------------------------------------------------------------|
E|--------------------------------------------------------------------|

         S       S        S               S       S
G|----7--x----7--x-----6--x----6------11--x---11--x-----|
D|--5----x--5----x---4----x--4---4/--9----x--9----x--7--|
A|------------------------------------------------------|
E|------------------------------------------------------|

         S       S        S       S          S       S        S       S
G|----7--x----7--x-----7--x----7--x-------6--x----6--x-----6--x----6--x--|
D|--5----x--5----x---5----x--5----x-----4----x--4----x---4----x--4----x--|
A|-----------------------------------------------------------------------|
E|-----------------------------------------------------------------------|

         S       S        S       S         S       S          S        S
G|---11--x---11--x----11--x---11--x------9--x----9--x------14--x----14--x--|
D|--9----x--9----x---9----x--9----x----7----x--7----x----12----x--12----x--|
A|-------------------------------------------------------------------------|
E|-------------------------------------------------------------------------|

         S       S        S       S          S       S        S       S
G|----7--x----7--x-----7--x----7--x-------6--x----6--x-----6--x----6--x--|
D|--5----x--5----x---5----x--5----x-----4----x--4----x---4----x--4----x--|
A|-----------------------------------------------------------------------|
E|-----------------------------------------------------------------------|

         S       S        S       S
G|---11--x---11--x----11--x---11--x---7--|
D|--9----x--9----x---9----x--9----x------|
A|---------------------------------------|
E|---------------------------------------|

2:45
         S       S        S               S       S        S
G|----7--x----7--x-----6--x----6------11--x---11--x-----9--x----97----|
D|--5----x--5----x---4----x--4---4/--9----x--9----x---7----x--7---97--|
A|--------------------------------------------------------------------|
E|--------------------------------------------------------------------|

         S       S        S               S       S        S
G|----7--x----7--x-----6--x----6------11--x---11--x-----9--x----97----|
D|--5----x--5----x---4----x--4---4/--9----x--9----x---7----x--7---97--|
A|--------------------------------------------------------------------|
E|--------------------------------------------------------------------|

         S       S        S               S       S        S
G|----7--x----7--x-----6--x----6------11--x---11--x-----9--x----97----|
D|--5----x--5----x---4----x--4---4/--9----x--9----x---7----x--7---97--|
A|--------------------------------------------------------------------|
E|--------------------------------------------------------------------|

         S       S        S               S       S
G|----7--x----7--x-----6--x----6------11--x---11--x-----|
D|--5----x--5----x---4----x--4---4/--9----x--9----x--7--|
A|------------------------------------------------------|
E|------------------------------------------------------|
Advertisements

Leave a Reply

Fill in your details below or click an icon to log in:

WordPress.com Logo

You are commenting using your WordPress.com account. Log Out / Change )

Twitter picture

You are commenting using your Twitter account. Log Out / Change )

Facebook photo

You are commenting using your Facebook account. Log Out / Change )

Google+ photo

You are commenting using your Google+ account. Log Out / Change )

Connecting to %s