Lady Panther – Buono! (Bass tab)

Difficulty (1-5): 4
# Strings: 4
Tuning: EADG (Standard)
Reference: http://www.youtube.com/watch?v=elMIFOfiEx8

0:01
G|-----------------------------------------------------------|
D|--------1-3p1--------------------1-3p1---------------------|
A|-----123-----3--1----1-13-----123-----3--1----33-----------|
E|--1-4------------414--4----1-4------------414---001-1/15\--|

G|--------------------------------------|
D|--------------------------------------|
A|-----123-21--1----1-13-4444-66-77-8\--|
E|--1-4------4--414--4------------------|

G|-------------------------------------------|
D|-------------------------------------------|
A|------------123-21--1----321---8p6---------|
E|--1/12\--1-4------4--414----41----8p7-641--|

0:29
G|---------------------------------------------------|
D|----3-----3-----------------3-----5----------------|
A|---4-4---4-4----3-----3----4-4---5-5--33-33-64-3\--|
E|--6-----6-----14-4--14-4--6-----7------------------|

G|-------------------------------------------------------|
D|----------------------2-----2-----3-----3--------------|
A|----------3-----3----3-3---3-3---5-5---5-5--44-4-31----|
E|--1/12\-14-4--14-4--5-----5-----6-----6------------53--|

G|--------------------------------------------------|
D|----------------2-----2-----3-----3---------------|
A|----3-----3----3-3---3-3---5-5---5-5--33-43-/17\--|
E|--14-4--14-4--5-----5-----6-----6-----------------|

G|-------------------------------------------------------|
D|----3-----2--------------------------------------------|
A|---5-5---4-4--5-05--030---12-33-567-88-7-66-78---------|
E|--6-----5------1---1-----3----------------------1/12\--|

G|-----------------------------------------------------------|
D|--------1-3p1--------------------1-3p1---------------------|
A|-----123-----3--1----1-13-----123-----3--1----33-----------|
E|--1-4------------414--4----1-4------------414---001-1/15\--|

1:20
G|--------------------------------------|
D|--------------------------------------|
A|-----123-21--1----1-13-4444-66-77-8\--|
E|--1-4------4--414--4------------------|

G|-------------------------------------------|
D|-------------------------------------------|
A|------------123-21--1----321---8p6---------|
E|--1/12\--1-4------4--414----41----8p7-641--|

G|---------------------------------------------------|
D|----3-----3-----------------3-----5----------------|
A|---4-4---4-4----3-----3----4-4---5-5--33-33-64-3\--|
E|--6-----6-----14-4--14-4--6-----7------------------|

1:48
G|-------------------------------------------------------|
D|----------------------2-----2-----3-----3--------------|
A|----------3-----3----3-3---3-3---5-5---5-5--44-4-31----|
E|--1/12\-14-4--14-4--5-----5-----6-----6------------53--|

G|--------------------------------------------------|
D|----------------2-----2-----3-----3---------------|
A|----3-----3----3-3---3-3---5-5---5-5--33-43-/17\--|
E|--14-4--14-4--5-----5-----6-----6-----------------|

G|-------------------------------------------------------|
D|----3-----2--------------------------------------------|
A|---5-5---4-4--5-05--030---12-33-567-88-7-66-78---------|
E|--6-----5------1---1-----3----------------------1/12\--|

G|--------------------------------------|
D|----3-----3-----------------3-----5---|
A|---4-4---4-4----3-----3----4-4---5-5--|
E|--6-----6-----14-4--14-4--6-----7-----|

G|---------------------------------------------------------|
D|---------------------------------------------------------|
A|--3----------------7-8-9-10-12-13-14-15\-----------------|
E|----1-3-4-5-6-77-8-----------------------8\--88-7-66-78--|

2:32
G|-------------------------------------------|
D|------------2-52------3-----3--------------|
A|---------3h5---------5-5---5-5--44-4-31----|
E|--13\--5--------55--6-----6------------53--|

G|--------------------------------------------------|
D|----------------2-----2-----3-----3---------------|
A|----3-----3----3-3---3-3---5-5---5-5--33-43-/17\--|
E|--14-4--14-4--5-----5-----6-----6-----------------|

G|-----------------------------------------------|
D|----3-----2------------------------------------|
A|---5-5---4-4--5-05--030---12-33-567-8----------|
E|--6-----5------1---1-----3-----------456-8087--|

G|----------------------------------------------------------|
D|----35-5/7-532--------------------------------------------|
A|---5------------5-05---030---12-33-567-88-7-66-78---------|
E|--6--------------1----1-----3----------------------1/12\--|

G|-----------------------------------------------------------|
D|--------1-3p1--------------------1-3p1---------------------|
A|-----123-----3--1----1-13-----123-----3--1----33-----------|
E|--1-4------------414--4----1-4------------414---001---9\1--|
Advertisements

Leave a Reply

Fill in your details below or click an icon to log in:

WordPress.com Logo

You are commenting using your WordPress.com account. Log Out / Change )

Twitter picture

You are commenting using your Twitter account. Log Out / Change )

Facebook photo

You are commenting using your Facebook account. Log Out / Change )

Google+ photo

You are commenting using your Google+ account. Log Out / Change )

Connecting to %s