She’s Back – INFINITE (Bass tab)

Difficulty (1-5): 3
# Strings: 4
Tuning: EADG (Standard)
Reference: http://www.youtube.com/watch?v=8rLpNGVz4Mk

0:01
G|---------------------------------|
D|---------------------------------|
A|-----------3-34-----------3-34---|
E|--2-24-46-6-----12-24-46-6----1--|

    SSP SSSS SP  SSP SSSS SP  SSP SSSS SP  SSP SS SS
G|-------------------------------------------5--------|
D|----4-------4----6-------6----8-------8-------------|
A|-----------------------------------------33--33-4---|
E|--22--2222-2---44--4444-4---66--6666-6-----------1--|

    SSP SSSS SP  SSP SSSS SP  SSP SSSS SP  SSP SS SS
G|-------------------------------------------5--------|
D|----4-------4----6-------6----8-------8-------------|
A|-----------------------------------------33--33-4---|
E|--22--2222-2---44--4444-4---66--6666-6-----------1--|

0:31
G|------------------------------------------|
D|------------------------------------------|
A|--------------------------------3-333-4---|
E|--2-22222-224-44444-446-66666-66-------1--|

G|------------------------------------------|
D|------------------------------------------|
A|--------------------------------3-333-4---|
E|--2-22222-224-44444-446-66666-66-------1--|

G|-----------------------------------|
D|-----------------------------------|
A|--------------------------3-3334---|
E|--22222-224-4444446-666666------1--|

G|-----------------------------------|
D|-----------------------------------|
A|--------------------------3-3334---|
E|--22222-224-4444446-666666------1--|

1:00
    SSP SSSS SP  SSP SSS S  SSP SSSS SP  SSP SSS S
G|--------------------------------------------------|
D|----4-------4----3----------3-------3----8--------|
A|--------------------------------------------------|
E|--22--2222-2---11--111-1--11--1111-1---66--666-4--|

    SSP SSSS SP  SSP SSS S  SSP SSSS SP  SSP SSS S
G|----8-------8-------------------------------------|
D|-----------------3----------3-------3----8--------|
A|--66--6666-6--------------------------------------|
E|---------------11--111-1--11--1111-1---66--666-4--|

1:22
G|----------------------------------------------|
D|----------------------------------------------|
A|--4---------------------------------3-333-4---|
E|---1--2-22222-224-44444-446-66666-66-------1--|

G|------------------------------------------|
D|------------------------------------------|
A|--------------------------------3-333-4---|
E|--2-22222-224-44444-446-66666-66-------1--|

G|------------------------------------------|
D|------------------------------------------|
A|--------------------------------3-333-4---|
E|--2-22222-224-44444-446-66666-66-------1--|

G|-----------------------------------|
D|-----------------------------------|
A|--------------------------3-3334---|
E|--22222-224-4444446-666666------1--|

G|-----------------------------------|
D|-----------------------------------|
A|--------------------------3-3334---|
E|--22222-224-4444446-666666------1--|

2:00
    SSP SSSS SP  SSP SSS S  SSP SSSS SP  SSP SSS S
G|--------------------------------------------------|
D|----4-------4----3----------3-------3----8--------|
A|--------------------------------------------------|
E|--22--2222-2---11--111-1--11--1111-1---66--666-4--|

    SSP SSSS SP  SSP SSS S  SSP SSSS SP  SSP SSS S
G|----8-------8-------------------------------------|
D|-----------------3----------3-------3----8--------|
A|--66--6666-6--------------------------------------|
E|---------------11--111-1--11--1111-1---66--666-4--|

2:21
             SSP SSSS SP  SSP SSSS SP  SSP SSSS SP  SSP SS SS
G|----------------------------------------------------7--------|
D|-------------5-------5----7-------7----9-------9-------------|
A|--7-----------------------------------------------44--44-5---|
E|----5-3-5--33--3333-3---55--5555-5---77--7777-7-----------2--|

    SSP SSSS SP  SSP SSSS SP  SSP SSSS SP  SSP SS SS
G|-------------------------------------------7--------|
D|----5-------5----7-------7----9-------9-------------|
A|-----------------------------------------44--44-5---|
E|--33--3333-3---55--5555-5---77--7777-7-----------2--|

    SSP SSSS SP  SSP SSS S  SSP SSSS SP  SSP SSS S
G|--------------------------------------------------|
D|----5-------5----4----------4-------4----9--------|
A|--------------------------------------------------|
E|--33--3333-3---22--222-2--22--2222-2---77--777-5--|

    SSP SSSS SP  SSP SSS S  SSP SSSS SP  SSP SSS S
G|----9-------9-------------------------------------|
D|-----------------4----------4-------4----9--------|
A|--77--7777-7--------------------------------------|
E|---------------22--222-2--22--2222-2---77--777-5--|

    SSP SSSS SP  SSP SSS S  SSP SSSS SP  SSP SSS S
G|--------------------------------------------------|
D|----5-------5----4----------4-------4----9--------|
A|--------------------------------------------------|
E|--33--3333-3---22--222-2--22--2222-2---77--777-5--|

    SSP SSSS SP  SSP SSS S  SSP SSSS SP  SSP SSS S
G|----9-------9-------------------------------------|
D|-----------------4----------4-------4----9--------|
A|--77--7777-7--------------------------------------|
E|---------------22--222-2--22--2222-2---77--777-5--|
Advertisements

Leave a Reply

Fill in your details below or click an icon to log in:

WordPress.com Logo

You are commenting using your WordPress.com account. Log Out / Change )

Twitter picture

You are commenting using your Twitter account. Log Out / Change )

Facebook photo

You are commenting using your Facebook account. Log Out / Change )

Google+ photo

You are commenting using your Google+ account. Log Out / Change )

Connecting to %s