Set Me Free – SiM (Bass tab)

Difficulty (1-5): 3
# Strings: 5
Tuning: BEADG (Standard)
Reference: http://www.youtube.com/watch?v=7ehGRstxgSU

0:11
G|--------------------------------------|
D|-----75-------75-------75-------75----|
A|--55---87--55---87--55---87--55---87--|
E|--------------------------------------|
B|--------------------------------------|

G|-------------------------------------|
D|----------------------75-------75----|
A|-------5-----1133--55---87--55---87--|
E|--33-66---33-------------------------|
B|-------------------------------------|

G|--------------------------------------|
D|-----75-------75-------75-------75----|
A|--55---87--55---87--55---87--55---87--|
E|--------------------------------------|
B|--------------------------------------|

G|-------------------------------------|
D|--55-53-3-553322------75-------75----|
A|-------5--------3--55---87--55---87--|
E|-------------------------------------|
B|-------------------------------------|

0:41
G|-------------------------------------------------------------------|
D|-------------------------------------------------------------------|
A|------------------1-(x16)-3-(x16)-----------------1-(x16)-3-(x16)--|
E|----------1-(x16)-------------------------1-(x16)------------------|
B|--3-(x16)-------------------------3-(x16)--------------------------|

G|-----------------------------------------------------------|
D|-----------------------------------------------------------|
A|-----------------------------------------------------------|
E|-----------------------------------------------------------|
B|--33-343-333-343--33-343-333-343--33-343-333-343--33-3433--|

G|--------------------------------------|
D|-----75-------75-------75-------75----|
A|--55---87--55---87--55---87--55---87--|
E|--------------------------------------|
B|--------------------------------------|

G|-------------------------------------|
D|----------------------75-------75----|
A|-------5-----1133--55---87--55---87--|
E|--33-66---33-------------------------|
B|-------------------------------------|

1:22
G|--------------------------------------|
D|--------------------------------------|
A|--55-5034--55-5034--55-5034--5533--3--|
E|---------------------------------55---|
B|--------------------------------------|

G|-------------------------------------|
D|----------------------75-------75----|
A|-----113---113344--55---87--55---87--|
E|--33-----3---------------------------|
B|-------------------------------------|

G|------------------------5675-5----|
D|-----75-------75-------7----7-73--|
A|--55---87--55---87--55------------|
E|----------------------------------|
B|----------------------------------|

G|-------------------------------------|
D|--55-53-3-553322------75-------75----|
A|-------5--------3--55---87--55---87--|
E|-------------------------------------|
B|-------------------------------------|

1:52
G|-----------------------------------------------------------------------|
D|-----------------------------------------------------------------------|
A|------------------1-(x16)-3-(x16)-----------------1-(x16)-3-(x16)------|
E|----------1-(x16)-------------------------1-(x16)----------------------|
B|--3-(x16)-------------------------3-(x16)-------------------------3~ --|

G|------------------------------------------------------------------|
D|------------------------------------------------------------------|
A|------------------------------------------------------------------|
E|------------------------------------------------------------------|
B|--654-3-3433-333-333--3-3433-333-333--3-3433-333-333--3-3433-654--|

G|---------------------------------------------------------|
D|---------------------------------------------------------|
A|---------------------------------------------------------|
E|---------------------------------------------------------|
B|--3-3433-333-333--3-3433-333-333--3-3433-333-333-3-3433--|

3:04
G|--------------------------------------|
D|-----75-------75-------75-------75----|
A|--55---87--55---87--55---87--55---87--|
E|--------------------------------------|
B|--------------------------------------|

G|-------------------------------------|
D|----------------------75-------75----|
A|-------5-----1133--55---87--55---87--|
E|--33-66---33-------------------------|
B|-------------------------------------|

G|--------------------------------------|
D|-----75-------75-------75-------75----|
A|--55---87--55---87--55---87--55---87--|
E|--------------------------------------|
B|--------------------------------------|

G|-------------------------------------|
D|--55-53-3-553322------75-------75----|
A|-------5--------3--55---87--55---87--|
E|-------------------------------------|
B|-------------------------------------|

3:29
G|--------------------------------------|
D|--------------------------------------|
A|---------------------1-(x16)-3-(x16)--|
E|-------------1-(x16)------------------|
B|--3~ -3-(x16)-------------------------|

G|-------------------------------------------------------------------------|
D|-------------------------------------------------------------------------|
A|------------------------------------1-111-11-11-1111-3-333-33-33---------|
E|-------------------1-111-11-11-1111--------------------------------------|
B|--3-333-33-33-3333-----------------------------------------------6543~ --|
Advertisements

Leave a Reply

Fill in your details below or click an icon to log in:

WordPress.com Logo

You are commenting using your WordPress.com account. Log Out / Change )

Twitter picture

You are commenting using your Twitter account. Log Out / Change )

Facebook photo

You are commenting using your Facebook account. Log Out / Change )

Google+ photo

You are commenting using your Google+ account. Log Out / Change )

Connecting to %s