Harukaze – Scandal (Bass tab)

Difficulty (1-5): 4
# Strings: 4
Tuning: EADG (Standard)
Reference: N/A

0:01
G|-------------------------------------------------------------------|  <-
D|-------------------------------------------------------------------|   -  Play 
A|------------------44-4444-44-44-------------------44-4444-44-4444--|   - 2 Times
E|--00-000-777-7757--------------77-55-5457-77-7757------------------|  <-

G|--------------------------------------------------------------------|
D|--------------------------------------------------------------------|
A|------------------44-4444-44-/77-44-----7--------76-44-4444-44-4444-|
E|--00-000-777-7757-------------------55-5--7777-77-------------------|

G|-------------------------------------------------------------|
D|---------------------------------------------------976-------|
A|----------------4-(x8)-7-(x8)---------------4-(x8)----7-999--|
E|--5-(x8)-7-(x8)---------------5-(x8)-7-(x8)------------------|

G|----------------------------------|
D|----------------------------------|
A|--------------------4-(x8)-77777--|
E|--55555455-77777577---------------|

G|-----------------------------------|
D|--6-9777776---77777-77--------999--|
A|-----------77------7---------/-----|
E|-----------------------777777------|

0:59
G|-----------------------------6--6--6--6---9--9--9--9--|
D|---7--7--7--7---9--9--9--9----------------------------|
A|----------------------------4--4--4--4---7--7--7--7---|
E|--5--5--5--5---7--7--7--7-----------------------------|

G|------------------------------6--6--6--6---6-----------|
D|---7--7--7--7---9--9--9--10-------------------6--7--9--|
A|-----------------------------4--4--4--4---4------------|
E|--5--5--5--5---7--7--7--8--------------------4--5--7---|

G|------------------------------------------6--6--6--6--|
D|---7--7--7--7---9--9--9--7---6--6--6--6---------------|
A|-----------------------------------------4--4--4--4---|
E|--5--5--5--5---7--7--7--5---4--4--4--4----------------|

G|-------------------------------6--6--6--6-----------|
D|---7--7--7--7---9--9--9--10-------------------------|
A|------------------------------4--4--4--4---77-77-4--|
E|--5--5--5--5---7--7--7--8---------------------------|

G|---------------------------------|
D|---------------------------------|
A|---------------------------------|
E|--55-55-5-55-5-55-777-777-777~ --|

1:30
G|------------------------------------------------------------------------|
D|-------------------------------------------------------------/11-11-11--| 
A|------------------44-4444-44-44-------------------44-4444-44------------| 
E|--00-000-777-7757--------------77-55-5457-77-7757-----------------------|

G|------------------------------------------------------|
D|-----679-9-979-9h11-1111-91111-11976--7-679-----------|
A|--7-7---------------------------------------7---------|
E|----------------------------------------------9~ --\--|

G|--------------------------------------------------------------------|
D|--------------------------------------------------------------------|
A|------------------44-4444-44-/77-44-----7--------76-44-4444-44-4444-|
E|--00-000-777-7757-------------------55-5--7777-77-------------------|

G|-------------------------------------------------------------|
D|---------------------------------------------------976-------|
A|----------------4-(x8)-7-(x8)---------------4-(x8)----7-999--|
E|--5-(x8)-7-(x8)---------------5-(x8)-7-(x8)------------------|

G|----------------------------------|
D|----------------------------------|
A|--------------------4-(x8)-77777--|
E|--55555455-77777577---------------|

G|-------------------------------------|
D|--6-9777776---77777-77--------99-99--|
A|-----------77------7---------/-------|
E|-----------------------777777--------|

2:28
G|-----------------------------6--6--6--6---9--9--9--9--|
D|---7--7--7--7---9--9--9--9----------------------------|
A|----------------------------4--4--4--4---7--7--7--7---|
E|--5--5--5--5---7--7--7--7-----------------------------|

G|------------------------------6--6--6--6---6-----------|
D|---7--7--7--7---9--9--9--10-------------------6--7--9--|
A|-----------------------------4--4--4--4---4------------|
E|--5--5--5--5---7--7--7--8--------------------4--5--7---|

G|------------------------------------------6--6--6--6--|
D|---7--7--7--7---9--9--9--7---6--6--6--6---------------|
A|-----------------------------------------4--4--4--4---|
E|--5--5--5--5---7--7--7--5---4--4--4--4----------------|

G|-------------------------------6--6--6--6-----------|
D|---7--7--7--7---9--9--9--10-------------------------|
A|------------------------------4--4--4--4---77-77-4--|
E|--5--5--5--5---7--7--7--8---------------------------|

G|--------------------------------|
D|---------------------------9~ --|
A|--------------------------/-----|
E|--55-55-5-55-5-55-777-777-------|

2:57
G|-----------------------------------------------------------|
D|--777-777-7-666-666-6-777-777-7-999-79-11-11-11--11-11-11--|
A|-----------------------------------------------------------|
E|-----------------------------------------------------------|

G|------------------------------------------------------------------|
D|--777-6-777-67-666-4-666-46-777-6-777-67---------------/11-11-11--|
A|------------------------------------------------------------------|
E|------------------------------------------777-757-999-------------|

G|----------------------------------------|
D|--------/77-67-9767--66-46-66-----------|
A|------------------------------77--------|
E|--55-45--------------------------77-44--|

G|--------------------------------|
D|--------------------------------|
A|--------------------------------|
E|--55-45-55-45-7545--77-77-7-77--|

G|--------------------------------------------------|
D|-----14--/16--------------------------------------|
A|--12---14----16------------------4-4444444444444--|
E|---------------16-12-7--5-4h57-0------------------|

3:44
G|-----------------------------6--6--6--6---9--9--9--9--|
D|---7--7--7--7---9--9--9--9----------------------------|
A|----------------------------4--4--4--4---7--7--7--7---|
E|--5--5--5--5---7--7--7--7-----------------------------|

G|------------------------------6--6--6--6---6-----------|
D|---7--7--7--7---9--9--9--10-------------------6--7--9--|
A|-----------------------------4--4--4--4---4------------|
E|--5--5--5--5---7--7--7--8--------------------4--5--7---|

G|------------------------------------------6--6--6--6--|
D|---7--7--7--7---9--9--9--7---6--6--6--6---------------|
A|-----------------------------------------4--4--4--4---|
E|--5--5--5--5---7--7--7--5---4--4--4--4----------------|

G|-------------------------------6--6--6--6-----------|
D|---7--7--7--7---9--9--9--10-------------------------|
A|------------------------------4--4--4--4---77-77-4--|
E|--5--5--5--5---7--7--7--8---------------------------|

G|--------------------------------|
D|---------------------------9~ --|
A|--------------------------/-----|
E|--55-55-5-55-5-55-777-777-------|

G|-------------------------------------------------------------------------|
D|-------------------------------------------------------------/11-11-11---| 
A|------------------44-4444-44-44-------------------44-4444-44-------------| 
E|--00-000-777-7757--------------77-55-5457-77-7757---------------------0--|
Advertisements

One thought on “Harukaze – Scandal (Bass tab)

Leave a Reply

Fill in your details below or click an icon to log in:

WordPress.com Logo

You are commenting using your WordPress.com account. Log Out / Change )

Twitter picture

You are commenting using your Twitter account. Log Out / Change )

Facebook photo

You are commenting using your Facebook account. Log Out / Change )

Google+ photo

You are commenting using your Google+ account. Log Out / Change )

Connecting to %s